Guitaretab - guitar tabs
Song name
# A B C D E F G H I J K L M N O P Q R S T U V W X Y Z

Litfiba - Lacio Drom tab

***********************************************************************
* LITFIBA – LACIO DROM (BUON VIAGGIO) – (From the album SPIRITO)      *
***********************************************************************

Transcribed By: Alessio Carta
Day tabbed: 20.08.2002
email: carta.ales@tiscalinet.it

Please mail me if you can find mistakes!

-----------------------------------------

Intro:
e-||----------------------------------------------------------------------------
B-||--9-------9---9-7h9-7---------------------9-------9---9-7h9-7---------------
G-||--9-6-6h7-9-6-9-------9-6---------------6-9-6-6h7-9-6-9-------9-6-----------
D-||--------------------------9-6-6-6-9-6-9---------------------------9-6-9-9-6-
A-||----------------------------------------------------------------------------
E-||----------------------------------------------------------------------------


    C#m              A     
La strada, dove finisce  
C#m              A
Senza piedi user? le mani mani
C#m                 A
Fino alla pista che non esiste
C#m                   A       
E la cavalcher? su venti ed uragani

D------6-----6-----------------6-----6------------
A--4-4---4-4-------7-----7-4-4---4-4---6-9--------
E--------------5-5---5-5---------------4-7--------

  C#m              A           
Regina di periferia
C#m              	A
Con gli occhi della rabbia e dell’arcobaleno
C#m              	A
Che non conoscono la destinazione
C#m              	A
E che mi dicono buon viaggio e lacio drom

C#m    A            C#m        A-6-9----
Uhah… Ti porter?, uhah…     E-4-7----
                           

C#m    A             C#m      A-6-9----
Uhah… Ti prender?.         E-4-7----


e---------5-5-5------------------------
B-9-7-----5-5-5-7h9-7------------------
G-----6-9-6-6-6-------9-6--------------
D-------------------------9-6-6-6-9----
A--------------------------------------
E--------------------------------------

     C#m      	A
La strada che non ha strisce
C#m                      A     
Sar? la rotta sotto questa luna
C#m                              A
Coi suoi problemi e coi suoi compromessi

C#m                        A
E che ogni volta non ritrovi mai la stessa
C#m-A	C#m       A	C#m-A  C#m    A
Uhah… Ci porter?, Uhah… Zingara
C#m-A   C#m       A
Uhah…  Ti porter?   

A-6-6-6-6-6-6-6-6-9-9-9-9---
E-4-4-4-4-4-4-4-4-7-7-7-7---


   C#m	G#m	           B
Ti porter? nei posti dove c’? del buon vino
  C#m	         G#m	        B
E festa festa fino a mattina
  C#m	                        G#m	 B
Sirena con due occhi grandi come la fame
C#m	         G#m	     B		C#m   G#m  B  C#m   G#m  B
Balla balla e poi lasciami qui     uiuih
C#m  G#m  B	C#m   G#m  B
Uh      lacio drom 


e--------------------------------------------------------------------------------
B---9-------9---9-7h9-7---------------------9---9-9-7--7----7h9-9-7--------------
G---9-6-6h7-9-6-9-------9-6---------------6-9-6-------9-6-9---------6h9-9-6------
D---------------------------9-6-6-6-9-6-9-----------------------------------9-6-6
A--------------------------------------------------------------------------------
E--------------------------------------------------------------------------------


C#m                    A
La strada che non finisce mai
C#m               A
Senza piedi user? le mie mani
C#m                       A
Con tutta l’arte di un equilibrista
C#m              A	               C#m-A	C#m   	A-6-9----
Per trovare un altro mondo per noi due…  noi due…	E-4-7----

  C#m	     G#m      B
E faccia a faccia con la porta della paura 
C#m	       G#m        B
Senza lacci senza cintura
  C#m	                        G#m       B
Sirena con due occhi grandi come la fame 
 C#m	         G#m    B 
Guarda guarda io sar? quaggi? 

Solo (I’m not sure of this solo):
-
e-----------------------------------9-12-12-12-10----------------------------------------
B-9-7h9-9-7-5h7-7-5-------------------------------12-10-12-10h12-12-10--------------10-12                                                                           G-------------------6-9-9-9-6-6-9-6-----------------------------------12-9-12-12-9-9-----                                                   D----------------------------------------------------------------------------------------
A----------------------------------------------------------------------------------------
E----------------------------------------------------------------------------------------

e-12---------7-------
B----12--------7-----
G-------12-9-----7-4-
D--------------------
A--------------------
E--------------------



   C#m	G#m	           B
Ti porter? nei posti dove c’? del buon vino
  C#m	         G#m	        B
E festa festa fino a mattina
  C#m	                        G#m	 B
Sirena con due occhi grandi come la fame
C#m	         G#m	     B		C#m	     G#m  B
Balla balla e poi lasciami qui uiuih
C#m	           G#m  B
Uh lacio drom 

C#m	            G#m  B
E festa festa…
C#m	            G#m  B
Fai festa festa…
C#m	                           G#m  B
Fai festa festa festa festa… 
C#m	             G#m  B
Nella tua testa…
C#m	       G#m  B
Uh uiuih…
C#m	            G#m  B
Uh lacio drom…

[ Tab from: http://www.guitaretab.com/l/litfiba/23410.html ]
Related for Lacio Drom tab
Lacio Drom chords by Litfiba