Song name
# A B C D E F G H I J K L M N O P Q R S T U V W X Y Z

Litfiba - Suona Fratello tab

-------------------------------------------------------------------------------
                             SUONA FRATELLO - Litfiba
-------------------------------------------------------------------------------
Tabbed by: Federico Vittorio Lupo
E-mail:federicovittoriolupo[at]gmail.com
Tuning:Standard (EADGBe)

If you find an error, please contact me. / Se trovate un errore, contattatemi.
I hope you enjoy! / Spero che vi piaccia!


************************************
| h   hammer-on
| p   pull-off
************************************

Am G Em Am

RIFF 1
e|----0--0-----3-3-----0-0-----0-0-|
B|----1--1-----0-0-----0-0-----1-1-|
G|----2--2-----0-0-----0-0-----2-2-|
D|---------------------------------|*2
A|-0------------------------0------|
E|----------3-------0--------------|

RIFF 2
e|-------0-------------------0-----|-------0-------------------|
B|-----1---1-3-0-------0-3-0---1---|-----1---1-3-0---3-1-0-----|
G|-2-2-----------0-0-0-----------2-|-2-2-----------0-------0-2-|
D|---------------------------------|---------------------------|*2
A|---------------------------------|---------------------------|
E|---------------------------------|---------------------------|

NOTE:
Guitar continue to strum RIFF 1 / La chitarra continua a suonare RIFF 1

Suona fratello alla luna piena perché 
La notte è una candela

Guarda sorella la luna piena perché 
L'amore è un'altalena
Canta sorella alla luna piena perché 
La vita è una catena

RIFF 3
e|-------0-3-2-0h2p0---0-------------------|
B|---1-3-------------3---1h3p1-1-3-3-1-0---|
G|-2-------------------------------------2-|*3
D|-----------------------------------------|
A|-----------------------------------------|
E|-----------------------------------------|

RIFF 4
e|-------0-------------------0-----|-------0-------------------|
B|-----1---1-3-0-------0-3-0---1---|-----1---1-3-0---3-1-0-----|
G|-2-2-----------0-0-0-----------2-|-2-2-----------0-------0-2-|
D|---------------------------------|---------------------------|*2
A|---------------------------------|---------------------------|
E|---------------------------------|---------------------------|

End / Fine
Tap to rate this tab
# A B C D E F G H I J K L M N O P Q R S T U V W X Y Z