Song name
# A B C D E F G H I J K L M N O P Q R S T U V W X Y Z

Litfiba - Sole Nero tab

(/) Slide Up  (\) Slide Down  (h) Hammer On  (p) Pull Off  (b) Bend (r) Release (v) 
Vibrato  (t) Tremolo Pick


e|---------------------------------------------------------------------------------------|
B|---------------------------------------------------------------------------------------|
G|--11h12v--12--11--12--11--9--11--9\7v-----7--9v--9b11r9--7--9b11r9v--7v--9--12--11-----|
D|---------------------------------------9-----------------------------------------------|
A|---------------------------------------------------------------------------------------|
E|---------------------------------------------------------------------------------------|


e|---------------------------------------------------------------------------------------|
B|-----------------------13------13------13------13------13------13------13--------------|
G|--9--11--12--9/12--14------14------14------14------14------14------14------------------|
D|---------------------------------------------------------------------------------------|
A|---------------------------------------------------------------------------------------|
E|---------------------------------------------------------------------------------------|


e|---------------------------------------------------------------------------------------|
B|----------------------------------------------------------13t--13t--13t--13t\----------|
G|--9t--9t--9t--9t--12t--12t--12t--12t--14t--14t--14t--14t-------------------------------|
D|---------------------------------------------------------------------------------------|
A|---------------------------------------------------------------------------------------|
E|---------------------------------------------------------------------------------------|
Tap to rate this tab
 
# A B C D E F G H I J K L M N O P Q R S T U V W X Y Z