Song name
# A B C D E F G H I J K L M N O P Q R S T U V W X Y Z

Lito Camo - Wowowee tab

My name is Archie, of Marist.. :)) haha!
hahaha!! Solo lang to.. ung sa Chorus.. :))

e||---0--0----2-------|-------------------|----4--4--2--4--0--|
B||-------------------|-----0--0----------|-------------------|
G||-------------------|-------------------|-------------------|
D||-------------------|-------------------|-------------------|
A||-------------------|-------------------|-------------------|
E||-------------------|-------------------|-------------------|


e||---0--0------------|-----------------0-|--2----------------|
B||---------2-2--0--0-|--0--0--2--2--4----|-------------------|
G||-------------------|-------------------|-------------------|
D||-------------------|-------------------|-------------------|
A||-------------------|-------------------|-------------------|
E||-------------------|-------------------|-------------------|


e||---0--0----2-------|-------------------|----4--4--2--4--0--|
B||-------------------|-----0--0----------|-------------------|
G||-------------------|-------------------|-------------------|
D||-------------------|-------------------|-------------------|
A||-------------------|-------------------|-------------------|
E||-------------------|-------------------|-------------------|


e||---0--0------------|-------------------|---2p4--2p4--0-----|
B||-----------2--2----|-----0--0------0---|-------------------|
G||-------------------|-------------------|-------------------|
D||-------------------|-------------------|-------------------|
A||-------------------|-------------------|-------------------|
E||-------------------|-------------------|-------------------|
THE END!! xD

hahaha!! FIN!!!! haha.. aun lang po!! paki rate na lang po.. :))
Tap to rate this tab
# A B C D E F G H I J K L M N O P Q R S T U V W X Y Z