Song name
# A B C D E F G H I J K L M N O P Q R S T U V W X Y Z

Little Barrie - Surf Hell tab

-----------------------------------------------------------------------------
                            Little Barrie - Surf Hell
-----------------------------------------------------------------------------


Tabbed by:Migu85
E-mail: m.reutegger@hotmail.com

Cant believe there is not a single Tab for this awesome Song!
Anyway have fun with it!

Tuning:Standard


Intro: Play 7x (after 2x Bass/Drums join in)
e|--------------------------------------------------------------------------|
B|--------------------------------------------------------------------------|
G|--------------------------------------------------------------------------|
D|--------------------------------------------------------------------------|
A|--------5-----4b--------5-----5--4b---------------------------------------|
E|--3--3-----3------6--3-----3----------6--3--1-----------------------------|

Play 1x
e|--------------------------------------------------------------------------|
B|--------------------------------------------------------------------------|
G|--------------------------------------------------------------------------|
D|--------------------------------------------------------------------------|
A|--------5-----4b--------5-----5--4b---------------------------------------|
E|--3--3-----3------6--3-----3----------3--6--6--3--------------------------|

Verse:
e|--------------------------------------------------------------------------|
B|--"I Only wanted for----------------------------"I Only wanted for--------|
G|--a night like this"----------------------------a night like thiiiiss"----|
D|--------------------------------------------------------------------------|
A|--------------------------------------------------------------------------|
E|------------------------3--6--6--3----------------------------------------|

e|--------------------------------------------------------------------------|
B|--------------------------------------------------------------------------|
G|--------------------------------------------------------------------------|
D|--------------------------------------------------------------------------|
A|-----------------5-----4b--------5-----5--4b------------------------------|
E|--3--6--6--3--3-----3------6--3-----3---------6--3--1---------------------|

e|--------------------------------------------------------------------------|
B|--------------------------------------------------------------------------|
G|--------------------------------------------------------------------------|
D|--------------------------------------------------------------------------|
A|--------5-----4b--------5-----5--4b---------------------------------------|
E|--3--3-----3------6--3-----3---------3--6--6--3---------------------------|

e|--------------------------------------------------------------------------|
B|--"Like all our problems----------------"Like all our problems------------|
G|--really dont exist"---------------------really dont exiiist"-------------|
D|--------------------------------------------------------------------------|
A|--------------------------------------------------------------------------|
E|-----------------------3--6--6--3-------16\tremolopicking-----------------|

Play 2x
e|--------------------------------------------------------------------------|
B|--------------------------------------------------------------------------|
G|--------------------------------------------------------------------------|
D|--------------------------------------------------------------------------|
A|--------5-----4b--------5-----5--4b---------------------------------------|
E|--3--3-----3------6--3-----3---------6--3--1------------------------------|

Bridge: "Lets hit that tight rope running"
e|--8----------6-----8------------------------------------------------------|
B|--8----------6-----8------------------------------------------------------|
G|--9----------7-----9------------------------------------------------------|
D|--10---------8-----10-----------------------------------------------------|
A|--10---------8-----10---------5-----4b-------5-----5--4b------------------|
E|--8----------6-----8----3--3-----3-----6--3-----3---------6--3--1---------|

Show we`re not good for nothing
e|--8----------6-----10-----------------------------------------------------|
B|--8----------6-----10-----------------------------------------------------|
G|--9----------7-----11-----------------------------------------------------|
D|--10---------8-----12-----------------------------------------------------|
A|--10---------8-----12---------5-----4b-------5-----5--4b------------------|
E|--8----------6-----10----3--3-----3-----6--3-----3---------3--6--6--3-----|

Bridge 2: Just push the pins cause you know that number
e|--------------------------------------------------------------------------|
B|--3----5-----3--3----5----------------------------------------------------|
G|--3----5-----3--3----5----------------------------------------------------|
D|--3----5-----3--3----5----------------------------------------------------|
A|--------------------------------------------------------------------------|
E|--------------------------------------------------------------------------|

Pull out the card that you just cant pay
e|--------------------------------------------------------------------------|
B|--3----5-----6--6----5----------------------------------------------------|
G|--3----5-----6--6----5----------------------------------------------------|
D|--3----5-----6--6----5----------------------------------------------------|
A|--------------------------------------------------------------------------|
E|--------------------------------------------------------------------------|

Into the cit with the bank notes conjured
e|--------------------------------------------------------------------------|
B|--3----5-----3--3----5----------------------------------------------------|
G|--3----5-----3--3----5----------------------------------------------------|
D|--3----5-----3--3----5----------------------------------------------------|
A|--------------------------------------------------------------------------|
E|--------------------------------------------------------------------------|

just dont do real, we can be so safe so safe
e|--------------------------------------------------------------------------|
B|--3----5-----6--6----5----------------------------------------------------|
G|--3----5-----6--6----5----------------------------------------------------|
D|--3----5-----6--6----5----------------------------------------------------|
A|--------------------------------------------------------------------------|
E|--------------------------------------------------------------------------|

e|--------------------------------------------------------------------------|
B|--------------------------------------------------------------------------|
G|--------------------------------------------------------------------------|
D|--------------------------------------------------------------------------|
A|--------5-----4b--------5-----5--4b------------------5-----4b-------------|
E|--3--3-----3------6--3-----3----------6--3--1--3--3-----3------6--3--16\tr|

e|--------------------------------------------------------------------------|
B|--------------------------------------------------------------------------|
G|--------------------------------------------------------------------------|
D|--------------------------------------------------------------------------|
A|--------5-----4b--------5-----5--4b---------------------------------------|
E|--3--3-----3------6--3-----3----------6--3--1-----------------------------|


e|--------------------------------------------------------------------------|
B|--------------------------------------------------------------------------|
G|--------------------------------------------------------------------------|
D|--------------------------------------------------------------------------|
A|--------5-----4b--------5-----5--4b---------------------------------------|
E|--3--3-----3------6--3-----3----------3--6--6--3--------------------------|



e|------------------------|--------------------------------|----------------|
B|--Can feel this heart---|-----I only wanted for----------|----------------|
G|--beating out my chest--|-----a night like this----------|----------------|
D|------------------------|-2x-----------------------------|-2x-------------|
A|------------------------|--------------------------------|----------------|
E|------------3--6--6--3--|---------------------3--6--6--3-|----16\tr-------|

Play 4x
e|--------------------------------------------------------------------------|
B|--------------------------------------------------------------------------|
G|--------------------------------------------------------------------------|
D|--------------------------------------------------------------------------|
A|--------5-----4b--------5-----5--4b---------------------------------------|
E|--3--3-----3------6--3-----3----------6--3--1-----------------------------|

Play the following Bridge 2x
Bridge: "Lets hit that tight rope running"
e|--8----------6-----8------------------------------------------------------|
B|--8----------6-----8------------------------------------------------------|
G|--9----------7-----9------------------------------------------------------|
D|--10---------8-----10-----------------------------------------------------|
A|--10---------8-----10---------5-----4b-------5-----5--4b------------------|
E|--8----------6-----8----3--3-----3-----6--3-----3---------6--3--1---------|

Show we`re not good for nothing
e|--8----------6-----10-----------------------------------------------------|
B|--8----------6-----10-----------------------------------------------------|
G|--9----------7-----11-----------------------------------------------------|
D|--10---------8-----12-----------------------------------------------------|
A|--10---------8-----12---------5-----4b-------5-----5--4b------------------|
E|--8----------6-----10----3--3-----3-----6--3-----3---------3--6--6--------|

Play the following Bridge 2 2x
Bridge 2: Just push the pins cause you know that number
e|--------------------------------------------------------------------------|
B|--3----5-----3--3----5----------------------------------------------------|
G|--3----5-----3--3----5----------------------------------------------------|
D|--3----5-----3--3----5----------------------------------------------------|
A|--------------------------------------------------------------------------|
E|--------------------------------------------------------------------------|

Pull out the card that you just cant pay
e|--------------------------------------------------------------------------|
B|--3----5-----6--6----5----------------------------------------------------|
G|--3----5-----6--6----5----------------------------------------------------|
D|--3----5-----6--6----5----------------------------------------------------|
A|--------------------------------------------------------------------------|
E|--------------------------------------------------------------------------|

Into the cit with the bank notes conjured
e|--------------------------------------------------------------------------|
B|--3----5-----3--3----5----------------------------------------------------|
G|--3----5-----3--3----5----------------------------------------------------|
D|--3----5-----3--3----5----------------------------------------------------|
A|--------------------------------------------------------------------------|
E|--------------------------------------------------------------------------|

just dont do real, we can be so safe so safe
e|--------------------------------------------------------------------------|
B|--3----5-----6--6----5----------------------------------------------------|
G|--3----5-----6--6----5----------------------------------------------------|
D|--3----5-----6--6----5----------------------------------------------------|
A|--------------------------------------------------------------------------|
E|--------------------------------------------------------------------------|

Outro:
e|--------------------------------------------------------------------------|
B|--------------------------------------------------------------------------|
G|--------------------------------------------------------------------------|
D|--------------------------------------------------------------------------|
A|--------5-----4b--------5-----5--4b---------------------------------------|
E|--3--3-----3------6--3-----3---------3--6--6--3~~~~-----------------------|

End

************************************

| Tr  Tremolo Picking
| /   slide up
| \   slide down
| h   hammer-on
| p   pull-off
| ~   vibrato
| +   harmonic
| x   Mute note
| b   Bend
| pb  Pre-bend
| br  Bend release
| pbr Pre-bend release
| brb Bend release bend

************************************
Tap to rate this tab
# A B C D E F G H I J K L M N O P Q R S T U V W X Y Z