Song name
# A B C D E F G H I J K L M N O P Q R S T U V W X Y Z

Little Big Town - Boondocks tab

-------------------------------------------------------------------------------
			     BOONDOCKS - Little Big Town
-------------------------------------------------------------------------------
Tabbed by: Alisha

Tuning: Standard, capo 2


e|----------1-----1----------------------------------------------------------|
B|------1h3----3----3---1----1h3--1--------1---------------------------------|
G|----2--------2-------------2--------2---------2----0----0h2----0----0------|
D|--0---0------0----0---0----0--------0---------0---------0------0----0------|
A|------------------------------------0---------0----0----0------0-----------|
E|---------------------------------------------------------------------------|

e|-------------------0h2---2----2----2---------------------------------------|
B|-------------------3-----3----3----3---------------------------------------|
G|--0-----0----------2-----2----2----2---------------------------------------|
D|-----3------3------0-----0----0----0---------------------------------------|
A|---------------------------------------------------------------------------|
E|---------------------------------------------------------------------------|




************************************

| /   slide up
| \   slide down
| h   hammer-on
| p   pull-off
| ~   vibrato
| +   harmonic
| x   Mute note
| b   Bend
| pb  Pre-bend
| br  Bend release
| pbr Pre-bend release
| brb Bend release bend

************************************
Tap to rate this tab
 
# A B C D E F G H I J K L M N O P Q R S T U V W X Y Z