Song name
# A B C D E F G H I J K L M N O P Q R S T U V W X Y Z

Little Big Town - Poontoon tab

^ :Bend Up
v : Bend Down
p :Pull Off
s :Slide

E|--------------------------------------------------------12--12------------|
B|---------------10------------------7----10--12--10--12^---------12v--10---|
G|--9----7----9^----9v--7----7----9-----------------------------------------|
D|--------------------------------------------------------------------------|
A|--------------------------------------------------------------------------|
E|--------------------------------------------------------------------------|


E|---------------------------------------------------------------------------|
B|--10--12--10--12s14--12-----------------10---------------------------------|
G|------------------------13--11--9----------9--11--9------------9-----------|
D|------------------------------------9s11-------------9--7--9s11---9--7-----|
A|---------------------------------------------------------------------------|
E|---------------------------------------------------------------------------|


E|--------------|
B|--------------|
G|--------------|
A|--9--7--------|
E|--------9--5--|
Tap to rate this tab
 
# A B C D E F G H I J K L M N O P Q R S T U V W X Y Z