Song name
# A B C D E F G H I J K L M N O P Q R S T U V W X Y Z

Little Big Town - Boondocks tab

Tabbed by:Luke Bachmann
Little Big Town
Boondocks

e|--------------------------------------------------------------------------|
B|----------8^-------8------------------------------------------------------|
G|---7/9--------9-------9/7---7-------7/9---7------7------------------------|
D|--------------------------------9------------9-----9----7----7/9----------|
A|--------------------------------------------------------------------------|
E|--------------------------------------------------------------------------|

e|--------------------------------------------------------------------------|
B|--------------------------------------------------------------------------|
G|--------------------------------------------------------------------------|
D|--7----7----7--5--7---5---7^----------------------------------------------|
A|--------------------------------------------------------------------------|
E|--------------------------------------------------------------------------|
Tap to rate this tab
# A B C D E F G H I J K L M N O P Q R S T U V W X Y Z