Song name
# A B C D E F G H I J K L M N O P Q R S T U V W X Y Z

Little Birdy - Come On Come On tab

Come on, Come on
Driving East

I like this song alot, and thats why I have decided to tab
it out.  Its not that hard of a song, and not really that
hard to tab out.  Have fun with it!

ANY questions - email me at zindcraver@sbcglobal.net

Tuning - eBGDAE (standard)

Verse:

|------------|-------------------|------------|----------|
|------------|-------------------|------------|----------|
|------------|-------------------|------------|----------|
|-3-3---6-6--|-3-3---6-6---6-6/3-|-3-3---6-6--|-xx6------|
|-1-1---4-4--|-1-1---4-4-6-4-4/1-|-1-1---4-4--|-xx4---6--|
|------------|-----------4-------|------------|-------4--|

|--------------------|--------------------|-----------------|
|--------------------|--------------------|-----------------|
|-3-3-3/6-6--6-6-666-|--------------------|-------3-3-3/6-6-|
|--------------------|-3-3---6-6---6-6/3--|-6-6/3-----------|
|-1-1-1/4-4--4-4-444-|-1-1---4-4-6-4-4/1--|-4-4/1-1-1-1/4-4-|
|--------------------|-----------4--------|-----------------|

|---------------------------------|
|---------------------5---<5>-----|
|-----------------------5-----<5>-|
|-6~------------------------------|
|-4~---6--6-6-6-6-6-6-------------|
|------4--4-4-4-4-4-4-------------|


Chorus:

|-----------------------|-------------------------|
|-----------------------|-------------------------|
|-----------------------|-------------------------|  x2
|-3-3-6-6---------------|-3-3-6-6-----------------|
|-1-1-4-4-6-6-6-6-6-8-8-|-1-1-4-4-6-6-6-6-6-6-8/4-|
|---------4-4-4-4-4-6-6-|---------4-4-4-4-4-4-6/2-|

The second time you do the second measure, palm mute
all of the G#5's.


Then Start the Next Verse on:

|--------|
|--------|
|--------|
|-6-6/3--|
|-4-4/1--|
|--------|

2nd Verse:

Same as 1st

2nd Chorus:

Same as 1st only do it twice

Bridge:

(clean)

|------------------------------|
|-----8-----8-8---6-6-5-----8--|
|---5-----5---------------5----|
|-0-----0-------0-------0------| x 4  (i think)
|------------------------------|
|------------------------------|


3rd Chorus:

Same as 2nd only do a nice pickslide in the middle.

Outro:

Pretty much same as verse.



Well that just about wraps it up.  Not to hard of a song
to play.  Hope its not to confusing!
Tap to rate this tab
# A B C D E F G H I J K L M N O P Q R S T U V W X Y Z