Song name
# A B C D E F G H I J K L M N O P Q R S T U V W X Y Z

Little Bit - Forget About Me tab

Artist: Lil Bit
Title: Forget About Me
Tabber: NaPoleon07
Tune: Standard

Intro:

e|--13-14-16-------------------------------------------------|
B|------------13-14-------13-14-16-16-18---------------------|
G|-----------------------------------------------------------|(4x)
D|-----------------------------------------------------------|
A|-----------------------------------------------------------|
E|-----------------------------------------------------------|


e|--13-14-16-----------------------14-13----14-13------------|
B|------------13-14-------13-14-16-------14-------1414/16----|
G|-----------------------------------------------------------|
D|-----------------------------------------------------------|
A|-----------------------------------------------------------|
E|-----------------------------------------------------------|

Verse:

e|-----------------------------------------------------------|
B|-----------------------------------------------------------|
G|--10-11-13-------------------------------------------------|(3x)
D|------------10-11-------10-11-13-13-15---------------------|
A|-----------------------------------------------------------|
E|-----------------------------------------------------------|


e|-----------------------------------------------------------|
B|-----------------------------------------------------------|
G|--10-11-13-----------------------11-10----11-10------------|
D|------------10-11-------10-11-13-------11-------1111/15----|
A|-----------------------------------------------------------|
E|-----------------------------------------------------------|

Chorus:(same as the verse)


Please Rate....
Hope you like it...
Tap to rate this tab
# A B C D E F G H I J K L M N O P Q R S T U V W X Y Z