Song name
# A B C D E F G H I J K L M N O P Q R S T U V W X Y Z

Little Comets - Dancing Song Live tab

http://www.myspace.com/littlecometsmusic - Song can be found here

official website - littlecomets.com

The Rhythm guitar just constantly changes between A and F# in the Intro/This ones for 
part.

Lead Riff (Intro/This one's for dancing part)
E -------------------------------------------|
A -------------------------------------------|
D -------------------------------------------|
G -9-9-9-9-9-9----------7-7-7-7-7-7----------|
B --------------11-9------------------9--7---|
E -------------------------------------------|

E -------------------------------------------|
A -------------------------------------------|
D -------------------------------------------|
G -9-9-9-9-9-9-----------11-11-13-11-9-------| (Not sure about the last part
B --------------11-9-------------------------|          of this bit)
E -------------------------------------------|


VERSE/Quieter Part

Chords: ALL BAR CHORDS

E (12th fret) , D, A

F#m, G#5 (Powerchord), A

x2


CHORUS

Same chords for rhythm as intro

Lead:

E ----------------|
A ----------------|
D ----------------|
G 9-6------9-6----|
B ----------------|
E ----------------|

E ----------------|
A ----------------|
D ----------------|
G ----------------|
B ----------------|
E ----------------|


WHEN IT REVERTS BACK TO THE WOO-WOO PARTS, THE LEAD GUITARIST PLAYS THE INTRO RIFF AGAIN
Tap to rate this tab
# A B C D E F G H I J K L M N O P Q R S T U V W X Y Z