Little Comets - One Night In October tab

-------------------------------------------------------------------------------
			     ONE NIGHT IN OCTOBER - Little Comets
-------------------------------------------------------------------------------
Tabbed by: knighty123
Email: knighty_dan@hotmail.co.uk

I've never tabbed anything out properly before, but I worked this out the other day and
I thought I'd share it with you kind folk. It's far from perfect, tere may be mistakes, 
but playing along to the songs it sounds fine, so far I've only got the lead guitar bit
done.



Intro
                        then....                                  "OH, language is dead.."
e|-------------------------------9--12--9--7-----7--7--9-9-------------------|
B|------5/7-5/7-5/9---x5-------------------------------------9---x2----------|
G|--------------------------------------------9------------------------------|
D|---------------------------------------------------------------------------|
A|---------------------------------------------------------------------------|
E|---------------------------------------------------------------------------|




Bit before the chorus
(I can't be bothered to work how many times you need to pick the 5th and 7th fret,
so just do it till it feels 'right')
e|--5//---7//--5//--7//--------5h7--5--------5h7--5--------------------------|
B|------------------------------------7-5-----------7-5---7/(slide to about the 17th)
G|---------------------------------------------------------------------------|
D|---------------------------------------------------------------------------|
A|---------------------------------------------------------------------------|
E|---------------------------------------------------------------------------|



Chorus
e|---5h7--5--------5h7--5-------5h7--5------5-5-5-5-5-5-5-5------------------|___
B|----------7-5-----------7-5----------7--5----------------------------------|  |
G|---------------------------------------------------------------------------|  |
D|---------------------------------------------------------------------------|  |
A|---------------------------------------------------------------------------|  |
E|---------------------------------------------------------------------------|  | 
                                                                                |
                                                                                | play twice
e|---5h7--5--------5h7--5--------5--7--5--------5----------------------------|  |
B|----------7-5-----------7--5------------7--5-------------------------------|  |
G|---------------------------------------------------------------------------|  |
D|---------------------------------------------------------------------------|  |
A|---------------------------------------------------------------------------|  |
E|---------------------------------------------------------------------------|__|

Next bit
e|-------9--12--9--7----7--7--9-9--------------------------------------------|
B|----------------------------------9---x2-----------------------------------|
G|-------------------9-------------------------------------------------------|
D|---------------------------------------------------------------------------|
A|---------------------------------------------------------------------------|
E|---------------------------------------------------------------------------|


Then you play the bit before the chorus and the chorus again, once you've played
it twice instead of the 'Next bit' play this:

e|---9----------9----------9-------------------------------------------------|
B|------12--10-----12--10-----12--10--10-10-10-10-10-10-10-10----------------| play
G|---------------------------------------------------------------------------| twice
D|---------------------------------------------------------------------------|
A|---------------------------------------------------------------------------|
E|---------------------------------------------------------------------------|


And that's all I have thus far, I shall add more once I work out the bridge bit
and the rhytm guitar bit, that's if I get round to it. Anyways, enjoy :)

Tap to rate this tab
 
# A B C D E F G H I J K L M N O P Q R S T U V W X Y Z