Song name
# A B C D E F G H I J K L M N O P Q R S T U V W X Y Z

Little Comets - His Thunder Acoustic tab

His Thunder (acoustic) - Little Comets


http://www.youtube.com/watch?v=9R6S3bCLfi4&feature=g-user-u


e|-----|  Each section
B|-----|  marked like
G|-----|  this is eaqual
D|-----|  to one bar
A|-----|  of the song
E|-----|

Part 1 - play as shown

e|------------|------------|------------|--------|
B|------------|------------|------------|--------|
G|----3----2--|----3----2--|----3----2--|----10--|
D|----2----0--|----2----0--|----2----0--|-----9--|
A|----4----2--|----4----2--|----4----2--|----11--|
E|--2----0----|--2----0----|--2----0----|--9-----|


part 2 - strum each chord. down strums only, accentuate the 2nd and 4th beat

e|-----|-----|-----|-----|
B|-----|-----|-----|-----|
G|--7--|--2--|--3--|--3--|
D|--5--|--0--|--2--|--2--|
A|--7--|--2--|--4--|--4--|
E|--5--|--0--|--2--|--2--|

part 3 - strum each chord the same as part 2


e|---------|---------|-----|-----|-----|-----|
B|---------|---------|-----|-----|-----|-----|
G|--7---2--|--7---2--|--3--|--3--|--3--|--3--|
D|--5---0--|--5---0--|--2--|--2--|--2--|--2--|
A|--7---2--|--7---2--|--4--|--4--|--4--|--4--|
E|--5---0--|--5---0--|--2--|--2--|--2--|--2--|

e|---------|---------|-----|-----|-----|-----|
B|---------|---------|-----|-----|-----|-----|
G|--7---2--|--7---2--|--3--|--3--|--3--|--3--|
D|--5---0--|--5---0--|--2--|--2--|--2--|--2--|
A|--7---2--|--7---2--|--4--|--4--|--4--|--4--|
E|--5---0--|--5---0--|--2--|--2--|--2--|--2--|

e|-----|-----|-----|-----|
B|-----|-----|-----|-----|
G|--3--|--3--|--3--|--3--|
D|--2--|--2--|--2--|--2--|
A|--4--|--4--|--4--|--4--|
E|--2--|--2--|--2--|--2--|


Part 1 x2
Part 2 x4
Part 1 x2
Part 2 x4
Part 3 x1
part 2 x4
Part 1 x1





Tap to rate this tab
# A B C D E F G H I J K L M N O P Q R S T U V W X Y Z