Song name
# A B C D E F G H I J K L M N O P Q R S T U V W X Y Z

Little Feat - Dixie Chicken tab

Help us improve GuitareTab! Take a short survey!
Band/Artist: Little Feat
Song: Dixie Chicken



Guitar 1



                                           w/slide                      
     W                   H        Q    E.  S          W                 
E||-------------------|----------------------------|-------------------|
B||-------------------|----------------------------|-------------------|
G||-------------------|----------------------------|-------------------|
D||-------------------|----------------------------|-------------------|
A||-------------------|----------------------------|-------------------|
E||-------------------|--------------------3S------|--5----------------|


                                    W             
  H        S S S S S  S E      Q    H.            
----------------------------|--------------------|
----------------------------|--------------------|
----------------------------|--------------------|
----------------------------|--------------------|
-------------4-0------------|--------------------|
--L--------------0-3S-5-3S--|--5----L------------|


  E  E  S S S S E  S S  Q         S E.  Q    H           W                 
-------------------------------|----------------------|-------------------|
-------------------------------|----------------------|-------------------|
-----1-------------7-5-(5)S----|----------------------|-------------------|
--------2---2------7-5-(5)S----|--7-------------------|-------------------|
----------4---0-L--------------|----------------------|-------------------|
-------------------------------|----------------------|-------------------|


  W                   W                   W                   W                 
-------------------|-------------------|-------------------|-------------------|
-------------------|-------------------|-------------------|-------------------|
-------------------|-------------------|-------------------|-------------------|
-------------------|-------------------|-------------------|-------------------|
-------------------|-------------------|-------------------|-------------------|
-------------------|-------------------|-------------------|-------------------|


  W                   H        E  Q    E     S S S S E  S  S S S S S E  S  S  
-------------------|--------------0-------|----------------------------------|
-------------------|--------------2-------|----------------------------------|
-------------------|--------------2-------|----2-----2---------2-----2-------|
-------------------|--------------2----7--|----------------------------------|
-------------------|--------------4----5--|--0-----0----3h-4-0-----0----3h-4-|
-------------------|----------------------|----------------------------------|


  S S S S S S E  S S S S S S  S  S    S S S S E   S  S S S S S E   S  S  
-----------------------------------|------------------------------------|
-----------------------------------|------------------------------------|
----2-----2--------9-----9---------|----9-----9----------9-----9--------|
-----------------------------11S-9-|-------------11S-9------------------|
--0-----0-----x------7-7-----------|--7-----7----------------7----11S-9-|
-----------------------------------|------------------------------------|


  Q    E.  S E  Q    E     E  E  S  S S  S S S S S S S S S  
------------------------|----------------------------------|
------------------------|----------------------------------|
-------9---9------------|----------------------------2-----|
-------7---7------------|--------------------4---4-4---2---|
--0-------------4-------|--0-----0h-2-4p-0-L---4---------x-|
---------------------0--|-----2----------------------------|


    w/piano solo                                                            
  S S            E  E.  S  S S S S Q         S S E  E.  S  S S  S S S S E   
----------------------------------------|----------------------------------|
----------------------------------------|----------------------------------|
--2-2------------------------2---2------|------2------------------2--------|
----------------------------------------|---------------4p-2--------4------|
------------------------3h-4------------|--3g4---------------3h-4-----3----|
----------------------------------------|----------------------------------|


  S S E  E.  S  S S S S S S S  S    S S E  Q    H         
---------------------------------|-----------------------|
---------------------------------|-----------------------|
----2-------------2-----2--------|----2------------------|
--------------------4-----4------|-----------------------|
--0----------3h-4-----------3h-4-|--0--------------------|
---------------------------------|-----------------------|


  Q    E.  S S S E  Q       S S E  Q    S S S S E   S  S  
-------------------------|-------------------------------|
-------------------------|-------------------------------|
---------------2---------|----------------9-----9--------|
-------------------------|----2--------------------11S-9-|
-----------0-L-----------|--0-----------7-----7----------|
-------------------------|-------------------------------|


  S S E  Q    S S S S S E.     S S E  Q    E  Q    E   
----------------------------|-------------------------|
----------------------------|-------------------------|
----9-----------9-----9-----|----9--------------------|
----------------------------|-------------------------|
--7-----------7-----7-------|--7--------------3----4--|
----------------------------|-------------------------|


  S S S S E  E  S S S S S S S S    S S S S S S S S S S S S S S S S  
--------------------------------|----------------------------------|
--------------------------------|----------------------------------|
----7-------------2-----2-------|----2-----2---------------9---9---|
------7---------------------4---|--------------4-----------9---9---|
--------9-L-----0-----0---------|--0-----0---0-------7-7-----7-----|
-------------8------------------|----------------------------------|


  S S S S S S E  S S S S E  S S    S E  S S S S S S S Q    E   
--------------------------------|-----------------------------|
----3-3-3-3-3-3----3-3-3-3--3-3-|----3----3---3---2-----------|
----4-4-4-4-4-4----4-4-4-4--4-4-|----4----4---4---2-----------|
--------------------------------|-----------------------------|
--------------------------------|---------------------3----4--|
--------------------------------|-----------------------------|


  S S S S E  S   S S  S  S  S  S  S  E   
----------------------------------------|
---------------------10-10-10-10-10-10--|
----7-----------------9--9--9--9--9-11--|
------7------9h-11-L--------------------|
--------9-L-----------------------------|
----------------------------------------|


  S  S  S  S  S  S  S S S S S S S S  S S    S S S S S S  S S S S S S S S  S S  
-----------------------------------------|------------------------------------|
----10-10-10-10-10-10--------------------|------------------------------------|
-----9--9--9--9--9-11-----9-9-9-9-9------|----9-9-9-9-9--------9-9-9-9-9------|
--------------------------9-9-9-9-9-11---|----9-9-9-9-9-11-----9-9-9-9-9-11---|
-----------------------------------------|------------------------------------|
-----------------------------------------|------------------------------------|


  S S S S S S  S S E  Q     E       H.           E   E    
---------------------------12S--|--14------------L--12S--|
---------------------------12S--|--14------------L--12S--|
----9-9-9-9-9------2------------|------------------------|
----9-9-9-9-9-11---2------------|------------------------|
-------------------0--4---------|------------------------|
--------------------------------|------------------------|


   Q    S E.   Q     S S  S S     E.   S  S   S S S  S   S  S  S E   S S  
--14------7S---9~----L---12---|--12S------------9---12S-(9)--------------|
--14------7S------------------|--------8-(8)S-9-------------8S-9---------|
------------------------------|----------------------------------9~--7---|
------------------------------|------------------------------------------|
------------------------------|------------------------------------------|
------------------------------|------------------------------------------|


  Q      S   E   S E  Q      E     E  S S S S S S E  S  S S  S S  S  
--------------------------------|-----------------------------------|
--------------------------------|-----------------------------------|
----------------14----6----6g4--|--2--------------------------------|
--7~----13S-14------------------|-----4-2-2---------------4S-2------|
--------------------------------|-----------2-4-0-L--2S-4------2S-4-|
--------------------------------|-----------------------------------|


  Riff B                                              
  S       S  S  S  S  S S  S S  S S  S   S  S  S   S  
-------------------------------------------14--------|
---------10-10-10-10S-8---10---10---13S-14----13S-14-|
------------------------9----------------------------|
-----------------------------------------------------|
-----------------------------------------------------|
-----------------------------------------------------|


                                         End Riff B  
  S  S  S  S  S  S S  S S S   S  S S S S S           
----------------------------------------------------|
----10-10-10-10S-8---10---8-------------------------|
-------------------9--------6g7p-5-7-5--------------|
---------------------------------------7-7----------|
----------------------------------------------------|
----------------------------------------------------|


  S  S  S  S  S  S S  S S  S S  S   S  S  S   S  
--------------------------------------14--------|
----10-10-10-10S-8---10---10---13S-14----13S-14-|
-------------------9----------------------------|
------------------------------------------------|
------------------------------------------------|
------------------------------------------------|


  S  S  S  S  S  S S S  S  S  S S S  S S S    H.           E  E    
-------------------------------------------|----------------------|
----10-10-10-10S-8-------------------------|----------------------|
-------------------x-5S-6-----7---5S-6-----|----------------------|
--------------------------(7)---7------7---|----------------------|
-----------------------------------------7-|--0------------L------|
-------------------------------------------|------------------3b--|


  H.           Q       S S S S S S S  S S S S S S S S  S  
--------------------|------------------------------------|
--------------------|------------------------------------|
--2-----------------|----2-----2----------2-----2--------|
--2-----------------|------------------------------------|
--0-----------------|--0-----0----------0-----0----------|
--------------------|--------------3p-0-------------3p-0-|


  S S E  E    E  S S S S S S  S S    S S E  Q    S S S S S S  S S  
----------------------------------|-------------------------------|
----------------------------------|-------------------------------|
----2--------------9-----9--------|----9--------------------------|
-----------------------------11---|----------------9---9-9---11---|
--0---------4g5--7-----7----------|--7-------------7---7-7--------|
----------------------------------|-------------------------------|


  S S S S S S E   E  Q    E     S E.  S E.  S  S  S  S  S S S S  
-----------------------------|----------------------------------|
-----------------------------|----------------10-10-10-10---x---|
----9---9-9------------------|----7---7--------9--9--9--9---x---|
-----------------------------|----7---7-------------------------|
--------------3b--0--3-------|----------------------------------|
-----------------------------|----------------------------------|


  S  E   S  S S S S S S S S S E.     S S S S S S S S S S S S S S S S  
----------------------------------|----------------------------------|
----10--10-10---x-----------------|----------------------------------|
-----9---9--9---x-----9-9-9-9-----|----7-7-7-7---9-----7-7-7-7-7-7-7-|
----------------------9-9-9-9-----|----9-9-9-9---9-----9-9-9-9-7-7-9-|
----------------------------------|----------------------------------|
----------------------------------|----------------------------------|


  S S S S E  S S E  Q    E     E.  S E  S S S  S E   S E.   
----------------------------|------------------------------|
----------------------------|-----------------10----10-----|
----7-7-7----9--------------|--7---7----x------9-----9-----|
----9-9-9----9--------------|--7---7----x------------------|
-----------------0--3----4--|------------------------------|
----------------------------|------------------------------|


  S  S  S  S  S S S S S S S S S S S S    S S S S S S S S S S E  S E  S  
--------------------------------------|--------------------------------|
----10-10-10-10---x-x-----------------|--------------------------------|
-----9--9--9--9---x-x---9-9-9-9---x---|--9---x-9---x-9---x-9----7----9-|
------------------------9-9-9-9---x---|--9---x-9---x-9---x-9----9----9-|
--------------------------------------|--------------------------------|
--------------------------------------|--------------------------------|


  S E  S S S S S  E   S  S   E      E        H.            E   E    
----------------------------------(12)S--|--14~------------L--12S--|
-----------------14--14-14-(14)S--(12)S--|--14~------------L--12S--|
--9----9---9-9---14--14-14-(14)S---------|-------------------------|
--9----9---9-9---------------------------|-------------------------|
-----------------------------------------|-------------------------|
-----------------------------------------|-------------------------|


   Q    S E  S Q     S  S S  S      S    S  S S  S S S S S S S S S E   S  
--14----L------9~------12---12-|--(12)S-(9)-----12-----------------------|
--14----L-8--9-----------------|------------8--------8-9-----------------|
-------------------------------|--------------9------------9-9-9---6S--4-|
-------------------------------|-----------------------------------------|
-------------------------------|-----------------------------------------|
-------------------------------|-----------------------------------------|


  S S S S S  S S S S S S S  S   S S S  
------7-------------------------------|
--------------------------------------|
----------7S-5-----------6-(6)S-4-----|
----7----------7-7-L--------------7---|
---------------------7--------------7-|
--------------------------------------|


  S S S S S S S  S S  S   S   S  E   E    
----------------14-----------------------|
------8--------------12S-14S-12----------|
----------5-6-------------------14-------|
--7-----------7---------------------14S--|
-----------------------------------------|
-----------------------------------------|


  S  S  S  S  S  S S  S S  S S  S   S  S  S   S  
--------------------------------------14--------|
----10-10-10-10S-8---10---10---13S-14----13S-14-|
-------------------9----------------------------|
------------------------------------------------|
------------------------------------------------|
------------------------------------------------|


  S  S  S  S  S  S S  S S S   S  S S S S S  
-------------------------------------------|
----10-10-10-10S-8---10---8----------------|
-------------------9--------8g7S-5-5-5-----|
---------------------------------------7---|
-----------------------------------------7-|
-------------------------------------------|


  S  S  S  S  S  S S  S S  S S  S   S  S  S   S  
--------------------------------------14--------|
----10-10-10-10S-8---10---10---13S-14----13S-14-|
-------------------9------10--------------------|
------------------------------------------------|
------------------------------------------------|
------------------------------------------------|


  S  S  S  S  S  S E   S  S  S  S  S  S S S  
--------------------------------------------|
----10-10-10-10S-8--------------------------|
-------------------5S--6-----7-----5S-6-----|
-------------------------(7)---(7)------7---|
--------------------------------------------|
--------------------------------------------|


  S  S  S  S  S  S S  S S  S S  S   S  S  S   S  
--------------------------------------14--------|
----10-10-10-10S-8---10---10---13S-14----13S-14-|
-------------------9------10--------------------|
------------------------------------------------|
------------------------------------------------|
------------------------------------------------|


  S  S  S  S  S  S S  S E  S  S  S S S S  
-----------------------------------------|
----10-10-10-10S-8---10------------------|
-------------------9-------6-(6)-7-5-6---|
---------------------------------------7-|
-----------------------------------------|
-----------------------------------------|


   S   S  S  S  S  S S  S S  S S  S   S  S  S   S  
----------------------------------------14--------|
------10-10-10-10S-8---10---10---13S-14----13S-14-|
---------------------9----------------------------|
--------------------------------------------------|
--(7)---------------------------------------------|
--------------------------------------------------|


  S  S  S  S  S  S S S S S S S E  S S  
----------------------------------7---|
----10-10-10-10S-8--------------------|
---------------------7-L---5----------|
--------------------------------------|
-------------------------7---7-7------|
--------------------------------------|


  S  S  S  S  S  S S  S S  S S  S   S  S  S   S  
--------------------------------------14--------|
----10-10-10-10S-8---10---10---13S-14----13S-14-|
-------------------9------10--------------------|
------------------------------------------------|
------------------------------------------------|
------------------------------------------------|


  S  S  S  S  S  S E   S S S S S  S S S   
----------------------------------------||
----10-10-10-10S-8----------------------||
-------------------5S--6---7---5S-6-----||
-------------------------7---7------7---||
----------------------------------------||
----------------------------------------||










Guitar 2



     W                   W                 
E||-------------------|-------------------|
B||-------------------|-------------------|
G||-------------------|-------------------|
D||-------------------|-------------------|
A||-------------------|-------------------|
E||-------------------|-------------------|


  S  S  S  S  S  S  S  S  S  S E  Q     
---------------------------------------|
----12-12-12-12-12-12-12-12-14---------|
----13-13-13-13-13-13-13-13-14---------|
---------------------------------------|
---------------------------------------|
---------------------------------------|


  S  S  S  S  S  S  S  S  S  S  S  S E      S  S  
-------------------------------------------------|
----12-12-12-12-12-12-12-12-14----------------14-|
----13-13-13-13-13-13-13-13-14-14----------------|
----------------------------------14----12g14----|
-------------------------------------------------|
-------------------------------------------------|


  S  S  S  S  S  S  S  S  S  S  S  S E  E   
-------------------------------------------|
----12-12-12-12-12-12-12-12-14-------------|
----13-13-13-13-13-13-13-13-14-14----------|
----------------------------------14-L-----|
-------------------------------------------|
-------------------------------------------|


  S  S  S  S  S  S  S  S  S  S E  Q     
---------------------------------------|
----12-12-12-12-12-12-12-12-14---------|
----13-13-13-13-13-13-13-13-14---------|
---------------------------------------|
---------------------------------------|
---------------------------------------|


  S  S  S  S  S  S  S  S  S  S S  S E  E   
------------------------------------------|
----12-12-12-12-12-12-12-12-14------------|
----13-13-13-13-13-13-13-13-14------------|
---------------------------------14-L-----|
------------------------------------------|
------------------------------------------|


  S  S  S  S  S  S  S  S  S  E.  S  E.     E   S  S  S  S  S  S  S  E.  E  E   
----------------------------------------|-----11-11-11-11-11-11-11-12---L-----|
----12-12-12-12-12-12-12-12-15----------|-----12-12-12-12-12-12-12------------|
----13-13-13-13-13-13-13-13-16----------|--------------------------13---L-----|
-----------------------------------14---|-------------------------------------|
----------------------------------------|-------------------------------------|
----------------------------------------|-------------------------------------|


  E   S  S  S  S  S  S S  E   S  E  E     E   E  E   E  S  S  S  S  S S S S  
-----11-11-11-10-10-10-----------------|-----10-----10----------------------|
-----12-12-12-12-12-12---14--12-10--8--|--7--10-----10----14-13-12-10-------|
---------------------------------------|-----11-----11----------------9-9-7-|
-------------------------14--12-11--9--|--7--12-----12----14-13-12-11-------|
-----------------------0---------------|------------------------------------|
---------------------------------------|------------------------------------|


  E  E  E  E  E  E  E  E     E  E  E  E  E  E  E  E     E  E  E  E  E  Q    E   
--------------------------|--------------------------|--------------5----------|
-----------------9--9--9--|-----9--9--9-----9--9--9--|-----9--9--9--5----------|
--9--9--9--9-----9--9--9--|-----9--9--9-----9--9--9--|-----9--9--9--6----------|
--7--7--7--7-----9--9--9--|-----9--9--9-----9--9--9--|-----9--9--9--7----------|
-----------------7--7--7--|-----7--7--7-----7--7--7--|-----7--7--7-----4----5--|
--------------0-----------|--0-----------0-----------|--0----------------------|


  Rhy Fig 1                                                         
            A5           A                             E5           
  S         S  S E  E  S E  E  Q       S S S S E  E  S S  E  E  E   
------------5--5-L-------5-----5----|----5---5---------------------|
------------5--5-L-------5-----5----|----5---5---------------------|
-------------------------6----------|----------L-------9-----9-----|
------------7--7-L-------7-----7----|----7---7-L-------9-----9-----|
------------------------------------|----------L-------7-----7-----|
------------------------------------|------------------------------|


                              A5                     
  S S E  E  E  S S E  Q       Q    E.  S E  Q    E   
---------------------------|--5----5---5------------|
---------------------------|--5----5---5------------|
---------------------------|------------------------|
----2----2-------2----2----|--7----7---7------------|
----2----2-------2----2----|----------------4-------|
----0----0-------0----0----|---------------------0--|


                  End Ryh Fig 1                                          
  Q    E.  S Q    Q                W                   W                 
--5----5---5--------------------|-------------------|-------------------|
--5----5---5--------------------|-------------------|-------------------|
-------------L------------------|-------------------|-------------------|
--7----7---7-L------------------|-------------------|-------------------|
-------------L------------------|-------------------|-------------------|
--------------------------------|-------------------|-------------------|


                                                       |--3-|        
  W                   W                   H        S S S  S S E  E   
-------------------|-------------------|-------------------------5--|
-------------------|-------------------|--------------------5-7-----|
-------------------|-------------------|---------------5h-6---------|
-------------------|-------------------|-------------7--------------|
-------------------|-------------------|----------------------------|
-------------------|-------------------|----------------------------|


  H        E   S  S  S  S  S  S     S  E.  Q    E   S  S  S  S  S  S  
--------------11-11-11-11-11-11-|--11-12-----------11-11-11-11-11-11-|
--------------12-12-12-12-12-12-|--12--------------12-12-12-12-12-12-|
--------------------------------|-----13-----------------------------|
--------------------------------|------------------------------------|
--------------------------------|------------------------------------|
--------------------------------|------------------------------------|


                                   D            A          
   S  E.  Q    S E  S S E.     E   E  S  E.  E  E  S E  S  
--11-12----------5--5-L-5---|-----10--L-10------0--L-0--0-|
--12-------------5--5-L-5---|-----10--L-10------2--L-2--2-|
-----13---------------------|-----11--L-11------2--L-2--2-|
-----------------7--7-L-7---|-----12--L-12------2--L-2--2-|
----------------------------|-------------------0--L-0--0-|
----------------------------|-----------------------------|


              E7                                                    A           
  E  E  E  E  E.  S E  E     E.  S E  E  E.  S E  E     E.  S E  E  E  Q    E   
--L--0--L--0--0---0-L--0--|--0---0-L--0--0---0-L--0--|--0---0-L--0--0----------|
--L--2--L--2--0---0-L--0--|--0---0-L--0--0---0-L--0--|--0---0-L--0--2----------|
--L--2--L--2--1---1-L--1--|--1---1-L--1--1---1-L--1--|--1---1-L--1--2----------|
--L--2--L--2--0---0-L--0--|--0---0-L--0--0---0-L--0--|--0---0-L--0--2----------|
--L--0--L--0--2---2-L--2--|--2---2-L--2--2---2-L--2--|--2---2-L--2--0--3----4--|
--------------0---0-L--0--|--0---0-L--0--0---0-L--0--|--0---0-L--0-------------|


   D                 A                            E7           
   E   S  S E   E  S S S S S S E     Q    S S S S E.  S E  E   
--10--10-10-L--10----0-0-0-0-0-0--|--0----0-0-0-0-0---0-L--0--|
--10--10-10-L--10----2-2-2-2-2-2--|--2----2-2-2-2-0---0-L--0--|
--11--11-11-L--11----2-2-2-2-2-2--|--2----2-2-2-2-1---1-L--1--|
--12--12-12-L--12----2-2-2-2-2-2--|--2----2-2-2-2-0---0-L--0--|
---------------------0-0-0-0-0-0--|--0----0-0-0-0-2---2-L--2--|
----------------------------------|---------------0---0-L--0--|


                               Rhy Fig 1                          
                                         A5           A           
  E  S S S S E  S E.  E  E     S         S  S E  E  S E  E  Q     
--0--0-0-0-0-0----0---0--0--|------------5--5-L-------5-----5----|
--0--0-0-0-0-0----0---0--0--|------------5--5-L-------5-----5----|
--1--1-1-1-1-1----1---1--1--|-------------------------6----------|
--0--0-0-0-0-0----0---0--0--|------------7--7-L-------7-----7----|
--2--2-2-2-2-2----2---2--2--|------------------------------------|
--0--0-0-0-0-0----0---0--0--|------------------------------------|


                  E5                                       
  S S S S E  E  S S  E  E  E     S S E  E  E  S S E  Q     
----5---5-L-------------------|---------------------------|
----5---5-L-------------------|---------------------------|
------------------9-----9-----|----9----9-------9----9----|
----7---7-L-------9-----9-----|----9----9-------9----9----|
------------------7-----7-----|----7----7-------7----7----|
------------------------------|---------------------------|


                                           End Ryh Fig 1                      
  A5                       A5                                                 
  Q    E.  S E  Q    E     Q    E.  S Q    Q                W                 
--5----5---5------------|--5----5---5-L------------------|--5----------------|
--5----5---5------------|--5----5---5-L------------------|--5----------------|
------------------------|--------------------------------|-------------------|
--7----7---7------------|--7----7---7-L------------------|--7----------------|
----------------4-------|--------------------------------|-------------------|
---------------------0--|--------------------------------|-------------------|


                                                 A7                       
  E  E  Q    H           H        H           E  S  S S E.  E  S S S E.   
--5-------------------|--5-----------------|-----5--5-L-5------5-5-L-5---|
--5-------------------|--5-----------------|-----5--5-L-5------5-5-L-5---|
----------------------|--6-----------------|-----6--6-L-6------6-6-L-6---|
--7-------------------|--7-----------------|-----5--5-L-7------5-5-L-7---|
----------------------|--------------------|--0-------------0------------|
----------------------|--------------------|-----------------------------|


                                     A5                    
  S S S S S E  S S E  S E  E     E.  S  Q    S S S S Q     
----5-5-5-5-5--5---5--5-5-----|------5-------5-5---5------|
----5-5-5-5-5--5---5--5-5-----|------5-------5-5---5------|
----6-6-6-6-6--6---6--6-6-----|---------------------------|
----5-5-5-5-7--5---5--7-7-----|------7-------7-7---7------|
--0---------------------------|---------------------------|
------------------------------|---------------------------|


  E.  S Q    E  E  Q       H        E.   S  S  S  S  S  
--5---5------5----------|------------------------------|
--5---5------5----------|---------------12-12-12-12-12-|
------------------------|---------------13-13-13-13-13-|
--7---7------7----------|------------------------------|
------------------------|------------------------------|
------------------------|------------------------------|


   S  E.  Q    E   S  S  S  S  S  S     S  E.  Q    E   S  S  S  S  S  S  
------------------11-11-11-11-11-11-|--11-12-----------11-11-11-11-11-11-|
--12-14-----------12-12-12-12-12-12-|--12--------------12-12-12-12-12-12-|
--13-14-----------------------------|-----13-----------------------------|
------------------------------------|------------------------------------|
------------------------------------|------------------------------------|
------------------------------------|------------------------------------|


   S  E.  Q     S  S  S  S S S E     E   E  S  E.  E  S S S E.   
--11-12---------------------------|-----10--L-10------5-5-L-5---|
--12-----------14-14-12-10-8-7-5--|-----10--L-10------5-5-L-5---|
-----13---------------------------|-----11--L-11------6-6-L-6---|
---------------14-14-12-11-9-7-5--|-----12--L-12------7-7-L-7---|
----------------------------------|-----------------------------|
----------------------------------|-----------------------------|


                   E7                                    
  E   E  S  E.  E  E  S E.     S E.  E  E  S S E  E  E   
-----10--L-10---------------|---------------------------|
-----10--L-10------9--L-9---|----9---9-------9-9--9--9--|
-----11--L-11------7--L-7---|----7---7-------7-7--7--7--|
-----12--L-12------9--L-9---|----9---9-------9-9--9--9--|
-------------------7--L-7---|----7---7-------7-7--7--7--|
----------------------------|---------------------------|


  S S E  E  E  E  Q    E     E   Q    E  S E  S E  E   
------------------5----5--|-----10---------5--x-5-----|
----9-9--9--------5----5--|-----10---------5--x-5-----|
----7-7--7----------------|-----11---------6--x-6-----|
----9-9--9--------7----7--|-----12---------7--x-7-----|
----7-7--7----------------|---------------------------|
--------------------------|---------------------------|


  E   E  Q    S E  S E  E     E  S S S S E  S E  S E  E   
-----10--------------------|-----------------------------|
-----10---------9--9-9-----|--9----9-L---9----9----9-----|
-----11---------7--7-7-----|--7----7-L---7----7----7-----|
-----12---------9--9-9-----|--9----9-L---9----9----9-----|
----------------7--7-7-----|--7----7-L---7----7----7-----|
---------------------------|-----------------------------|


                              Rhy Fig 1                          
                                        A5           A           
  E  S S S S E  E  Q    E     S         S  S E  E  S E  E  Q     
----------------5----------|------------5--5-L-------5-----5----|
--9----9-L---9--5----------|------------5--5-L-------5-----5----|
--7----7-L---7--6----------|-------------------------6----------|
--9----9-L---9--7----------|------------7--7-L-------7-----7----|
--7----7-L---7-----4-------|------------------------------------|
------------------------0--|------------------------------------|


                  E5                                       
  S S S S E  E  S S  E  E  E     S S E  E  E  S S E  Q     
----5---5-L-------------------|---------------------------|
----5---5-L-------------------|---------------------------|
------------------9-----9-----|---------------------------|
----7---7-L-------9-----9-----|----2----2-------2----2----|
------------------7-----7-----|----2----2-------2----2----|
------------------------------|----0----0-------0----0----|


  A5                                                     
  Q    E.  S E  Q    E     Q    E.  S S S  S S S  S S S  
--5----5---5------------|-------------------------------|
--5----5---5------------|-------------------------------|
------------------------|--2----2---2-----------------2-|
--7----7---7------------|--2----2---2--------2-4p-2-4---|
----------------4-------|--0----0---0---2h-4------------|
---------------------0--|-------------------------------|


                                               A7/13        
  E  E  Q    E  S S E  E     E  E  S E  S S E  S     S E.   
-----5------------5-L--5--|-----5----5--5---5--------------|
-----5------------5-L--5--|-----5----5--5---5--7-----L-7---|
-----6------------6-L--6--|-----6----6--6---6--6-----L-6---|
-----7------------5-L--5--|-----5----5--5---5--5-----L-5---|
-------------0------------|--------------------------------|
--------------------------|--------------------------------|


  E  S S S S E  E  S S E  S S    E  S S S E  S S E  S S S E   
-----5-5-5-5---------5-L--5-5-|-----5-5-L-5--5-L-5--5-5-5-5--|
-----5-5-5-5---------5-L--5-5-|-----5-5-L-5--5-L-5--5-5-5-5--|
-----6-6-6-6---------6-L--6-6-|-----6-6-L-6--6-L-6--6-6-6-6--|
-----5-5-5-5---------5-L--5-5-|-----5-6-L-5--5-L-5--5-5-5-5--|
--0-------------0-------------|--0---------------------------|
------------------------------|------------------------------|


  E.  S Q    S E  S Q       E  S S E  E  E  S S E  E   
------5-5------5--x-5----|--5----5-5-----5----5-5-----|
------5-5------5--x-5----|--5----5-5-----5----5-5-----|
------6-6------6--x-6----|--6----6-6-----6----6-6-----|
------5-5------5--x-5----|--5----5-5-----5----5-5-----|
-------------------------|----------------------------|
-------------------------|----------------------------|


  E  S S E  E  S S E  E  E     E  S S E  E  S S S S S E.   
--5----5-5-----5-5-5--5-----|--5----5-5-------5---5---5---|
--5----5-5-----5-5-5--5-----|--5----5-5-------5---5---5---|
--6----6-6-----6-6-6--6-----|--6----6-6-------6---6---6---|
--5----5-5-----5-5-5--5-----|--5----5-5-------5---5---5---|
----------------------------|-----------------------------|
----------------------------|-----------------------------|


  E  S S E  E  S S S S E  E     E  S S E  S E  E  S E  E    
--5----5-5-------5---5-5-----|--5----5-5----5-----5-5-----||
--5----5-5-------5---5-5-----|--5----5-5----5-----5-5-----||
--6----6-6-------6---6-6-----|--6----6-6----6-----6-6-----||
--5----5-5-------5---5-5-----|--5----5-5----5-----5-5-----||
-----------------------------|----------------------------||
-----------------------------|----------------------------||










Guitar 3



E||-------|-------|-------|-------|-------|-------|-------|-------|-------|
B||-------|-------|-------|-------|-------|-------|-------|-------|-------|
G||-------|-------|-------|-------|-------|-------|-------|-------|-------|
D||-------|-------|-------|-------|-------|-------|-------|-------|-------|
A||-------|-------|-------|-------|-------|-------|-------|-------|-------|
E||-------|-------|-------|-------|-------|-------|-------|-------|-------|


-------|-------|-------|-------|-------|-------|-------|-------|-------|-------|
-------|-------|-------|-------|-------|-------|-------|-------|-------|-------|
-------|-------|-------|-------|-------|-------|-------|-------|-------|-------|
-------|-------|-------|-------|-------|-------|-------|-------|-------|-------|
-------|-------|-------|-------|-------|-------|-------|-------|-------|-------|
-------|-------|-------|-------|-------|-------|-------|-------|-------|-------|


-------|-------|-------|-------|-------|-------|-------|-------|
-------|-------|-------|-------|-------|-------|-------|-------|
-------|-------|-------|-------|-------|-------|-------|-------|
-------|-------|-------|-------|-------|-------|-------|-------|
-------|-------|-------|-------|-------|-------|-------|-------|
-------|-------|-------|-------|-------|-------|-------|-------|


  Riff A                                                      
  E      S S E  E  E  S S E  E     E  S S E  E  E  S S E  E   
--------------------------------|----------------------------|
--------------------------------|----------------------------|
----------------2---------------|----------------------------|
--0--------4-L---------------2--|------------2---------------|
-------------------0----4-L-----|--0----4-L---------------2--|
--------------------------------|---------------0----4-L-----|


                                                    end riff A  
  E  S S E  E  E  S S E  E     E  S S E  E  E  Q    E           
----------------------------|----------------------------------|
----------------------------|----------------------------------|
----------------------------|----------------------------------|
----------------------------|----------------------------------|
------------2------------2--|------------2--0--3----4----------|
--0----4-L-----0----4-L-----|--0----4-L------------------------|


  E  S S E  E  E  S S E  E     E  S S E  E  E  S S E  E   
----------------------------|----------------------------|
----------------------------|----------------------------|
------------2---------------|----------------------------|
--0----4-L---------------2--|------------2---------------|
---------------0----4-L-----|--0----4-L---------------2--|
----------------------------|---------------0----4-L-----|


  E  S S E  E  E  S S E  E     E  S S E  E  E  Q    E   
----------------------------|--------------------------|
----------------------------|--------------------------|
----------------------------|--------------------------|
----------------------------|--------------------------|
------------2------------2--|------------2--0--4-------|
--0----4-L-----0----4-L-----|--0----4-L-------------0--|


  Rhy fig 2                                                          
  A5                                                                 
  S         S S S E  S S S S S S Q       S S E  E  E  S S S S E  E   
--------------------------------------|-----------------------------|
--------------------------------------|-----------------------------|
--2---------2---2-L--------2---x-2----|----2----2-------------------|
--2---------2---2-L--4-2---2---x-2----|----2----2--4----2---x-2-----|
--0---------0---0-L--------0---x-0----|----0----0-------2---x-2--4--|
--------------------------------------|-----------------0---x-0-----|


                                                    end rhy fig 2  
  S S S S E  E  S S S S E  E     Q    E.  S E  Q    E              
------------------------------|-----------------------------------|
------------------------------|-----------------------------------|
------------------------------|-----------------------------------|
----2---x-2-------2---x-2-----|--2----2---2-----------------------|
----2---x-2--4----2---x-2-----|--2----2---2----4------------------|
----0---x-0-------0---x-0-----|--0----0---0---------0-------------|


  Q    E.  S E  S  S S  S S  S  
-------------------------------|
-------------------------------|
--2----2---2-------------------|
--2----2---2---------4S-2------|
--0----0---0----2S-4------2S-4-|
-------------------------------|


  Riff B                                              
  S       S  S  S  S  S S  S S  S S  S   S  S  S   S  
-------------------------------------------14--------|
---------10-10-10-10S-8---10---10---13S-14----13S-14-|
------------------------9----------------------------|
-----------------------------------------------------|
-----------------------------------------------------|
-----------------------------------------------------|


                                         End Riff B  
  S  S  S  S  S  S S  S S S   S  S S S S S           
----------------------------------------------------|
----10-10-10-10S-8---10---8-------------------------|
-------------------9--------6g7p-5-7-5--------------|
---------------------------------------7-7----------|
----------------------------------------------------|
----------------------------------------------------|


  S  S  S  S  S  S S  S S  S S  S   S  S  S   S  
--------------------------------------14--------|
----10-10-10-10S-8---10---10---13S-14----13S-14-|
-------------------9----------------------------|
------------------------------------------------|
------------------------------------------------|
------------------------------------------------|


  S  S  S  S  S  S S  S S S S S E   E      E  S  S E  S S S S S S S S S  S  
----------------------------------------|-----7b-L-L-----------------------|
----10-10-10-10S-8---10-----------------|-----7b-L-L--5---5----------------|
-------------------9--------5-7-5b--7S--|---------------7---5---------5b---|
--------------------------7-------------|---------------------7-7-L-7----7-|
----------------------------------------|----------------------------------|
----------------------------------------|----------------------------------|


  S S S  S S S S S  S S   S S E   S S     W                   W                 
---------------------------------------|-------------------|-------------------|
---------------------------------------|-------------------|-------------------|
-----------------5b-L---<>7---5~-------|-------------------|-------------------|
------5b---7-5--------7-----7-----7-7~-|--L----------------|-------------------|
----7----7-----7-----------------------|-------------------|-------------------|
---------------------------------------|-------------------|-------------------|


   H        H         
--12-----------------|
---------------------|
---------------------|
---------------------|
---------------------|
---------------------|


  this bar doubles an octave higher                                  
  S                                 S   S S E  S S E    S S S S S S  
--------------------------------------------------------------------|
--------------------------------------------------------------------|
------------------------------------4br-L-2-L--4-2-4br--L-L-L-2-----|
----------------------------------------------------------------4---|
--------------------------------------------------------------------|
--------------------------------------------------------------------|


  Riff A                                                      
  E      S S E  E  E  S S E  E     E  S S E  E  E  S S E  E   
--------------------------------|----------------------------|
--------------------------------|----------------------------|
----------------2---------------|----------------------------|
--0--------4-L---------------2--|------------2---------------|
-------------------0----4-L-----|--0----4-L---------------2--|
--------------------------------|---------------0----4-L-----|


                                                    end riff A  
  E  S S E  E  E  S S E  E     E  S S E  E  E  Q    E           
----------------------------|----------------------------------|
----------------------------|----------------------------------|
----------------------------|----------------------------------|
----------------------------|----------------------------------|
------------2------------2--|------------2--0--3----4----------|
--0----4-L-----0----4-L-----|--0----4-L------------------------|


  Riff A                                                      
  E      S S E  E  E  S S E  E     E  S S E  E  E  S S E  E   
--------------------------------|----------------------------|
--------------------------------|----------------------------|
----------------2---------------|----------------------------|
--0--------4-L---------------2--|------------2---------------|
-------------------0----4-L-----|--0----4-L---------------2--|
--------------------------------|---------------0----4-L-----|


  E  S S E  E  E  S S E  E     E  S S E  E  E  Q    E   
----------------------------|--------------------------|
----------------------------|--------------------------|
----------------------------|--------------------------|
----------------------------|--------------------------|
------------2------------2--|------------2--0--4-------|
--0----4-L-----0----4-L-----|--0----4-L-------------0--|


  Rhy fig 2                                                          
  A5                                                                 
  S         S S S E  S S S S S S Q       S S E  E  E  S S S S E  E   
--------------------------------------|-----------------------------|
--------------------------------------|-----------------------------|
--2---------2---2-L--------2---x-2----|----2----2-------------------|
--2---------2---2-L--4-2---2---x-2----|----2----2--4----2---x-2-----|
--0---------0---0-L--------0---x-0----|----0----0-------2---x-2--4--|
--------------------------------------|-----------------0---x-0-----|


                                                    end rhy fig 2  
  S S S S E  E  S S S S E  E     Q    E.  S E  Q    E              
------------------------------|-----------------------------------|
------------------------------|-----------------------------------|
------------------------------|-----------------------------------|
----2---x-2-------2---x-2-----|--2----2---2-----------------------|
----2---x-2--4----2---x-2-----|--2----2---2----4------------------|
----0---x-0-------0---x-0-----|--0----0---0---------0-------------|


  Q    E.  S S S  S S S  S S S  
-------------------------------|
-------------------------------|
--2----2---2-----------------2-|
--2----2---2--------2-4p-2-4---|
--0----0---0---2h-4------------|
-------------------------------|


  Riff B                                              
  S       S  S  S  S  S S  S S  S S  S   S  S  S   S  
-------------------------------------------14--------|
---------10-10-10-10S-8---10---10---13S-14----13S-14-|
------------------------9----------------------------|
-----------------------------------------------------|
-----------------------------------------------------|
-----------------------------------------------------|


                                         End Riff B  
  S  S  S  S  S  S S  S S S   S  S S S S S           
----------------------------------------------------|
----10-10-10-10S-8---10---8-------------------------|
-------------------9--------6g7p-5-7-5--------------|
---------------------------------------7-7----------|
----------------------------------------------------|
----------------------------------------------------|


  Riff B                                              
  S       S  S  S  S  S S  S S  S S  S   S  S  S   S  
-------------------------------------------14--------|
---------10-10-10-10S-8---10---10---13S-14----13S-14-|
------------------------9----------------------------|
-----------------------------------------------------|
-----------------------------------------------------|
-----------------------------------------------------|


                                         End Riff B  
  S  S  S  S  S  S S  S S S   S  S S S S S           
----------------------------------------------------|
----10-10-10-10S-8---10---8-------------------------|
-------------------9--------6g7p-5-7-5--------------|
---------------------------------------7-7----------|
----------------------------------------------------|
----------------------------------------------------|


  Riff B                                              
  S       S  S  S  S  S S  S S  S S  S   S  S  S   S  
-------------------------------------------14--------|
---------10-10-10-10S-8---10---10---13S-14----13S-14-|
------------------------9----------------------------|
-----------------------------------------------------|
-----------------------------------------------------|
-----------------------------------------------------|


                                         End Riff B  
  S  S  S  S  S  S S  S S S   S  S S S S S           
----------------------------------------------------|
----10-10-10-10S-8---10---8-------------------------|
-------------------9--------6g7p-5-7-5--------------|
---------------------------------------7-7----------|
----------------------------------------------------|
----------------------------------------------------|


  Riff B                                              
  S       S  S  S  S  S S  S S  S S  S   S  S  S   S  
-------------------------------------------14--------|
---------10-10-10-10S-8---10---10---13S-14----13S-14-|
------------------------9----------------------------|
-----------------------------------------------------|
-----------------------------------------------------|
-----------------------------------------------------|


                                         End Riff B  
  S  S  S  S  S  S S  S S S   S  S S S S S           
----------------------------------------------------|
----10-10-10-10S-8---10---8-------------------------|
-------------------9--------6g7p-5-7-5--------------|
---------------------------------------7-7----------|
----------------------------------------------------|
----------------------------------------------------|


  Riff B                                              
  S       S  S  S  S  S S  S S  S S  S   S  S  S   S  
-------------------------------------------14--------|
---------10-10-10-10S-8---10---10---13S-14----13S-14-|
------------------------9----------------------------|
-----------------------------------------------------|
-----------------------------------------------------|
-----------------------------------------------------|


                                         End Riff B   
  S  S  S  S  S  S S  S S S   S  S S S S S            
----------------------------------------------------||
----10-10-10-10S-8---10---8-------------------------||
-------------------9--------6g7p-5-7-5--------------||
---------------------------------------7-7----------||
----------------------------------------------------||
----------------------------------------------------||




Duration Legend
---------------
W - whole
H - half
Q - quarter
E - 8th
S - 16th
T - 32nd
X - 64th
. - note dotted
|-n-|  - n-tuplets


Tablature Legend
----------------
L - tied note
x - dead note
g - grace note
(n) - ghost note
> - accentuded note
NH - natural harmonic
AH - artificial harmonic
TH - tapped harmonic
SH - semi harmonic
PH - pitch harmonic
h - hammer on
p - pull off
b - bend
br - bendRelease
pb - preBend
pbr - preBendRelease
brb - bendReleaseBend
\n/ - tremolo bar dip
\n - tremolo bar dive
-/n - tremolo bar Release up
/n\ - tremolo bar inverted dip
/n - tremolo bar return
-\n - tremolo bar Release down
S - shift slide
s - legato slide
/ -  slide into from below or out of upwards
\ -  slide into from above or out of downwards
~ - vibrato
W - wide vibrato
tr - trill
TP - tremolo picking
T - tapping
S - slap
P - pop
< - fade in
^ - brush up
v - brush down
Related for Dixie Chicken tab