Song name
# A B C D E F G H I J K L M N O P Q R S T U V W X Y Z

Little Feat - Willin tab

Song: Willin'
Band: Little Feat
Album: Sailin' Shoes


 

    E  Q    E  E  Q    E     E  E.  S S  S E  E.  S E   
E||-----7----------5-------|-----3-------------0--------|
B||-----8----------3-------|-----0-------------1--------|
G||--0----------2-------2--|--0----------------0--------|
D||----------9-------------|-------------------2--------|
A||------------------------|---------0-5s-3-3------0-3--|
E||------------------------|----------------------------|


  E  E.  E  S S S S S S S E     Q    E.  S E.  S E  E   
-----3---3--0-0-L-0-0-L-0-0--|--3----3---3-3---3-3--3--|
-----3---3--x-1---x-3---x-3--|--3----3---3-3---3-3--3--|
-----0---0--0-0-L-0-0-L-0-0--|--0----0---0-0---0-0--0--|
-----0---0--x-2---x-2---x-2--|--0----0-----0-----0--0--|
-----2---2--x-3---x-3---x-3--|--2----2-----2-----2--2--|
--3--------------------------|--3----3-----3-----3--3--|


  E  Q    E  E  Q    E     E  E.  S S  S E  E.  S E   
-----7----------5-------|-----3-------------0--------|
-----8----------3-------|-----0-------------1--------|
--0----------2-------2--|--0----------------0--------|
----------9-------------|-------------------2--------|
------------------------|---------0-5s-3-3------0-3--|
------------------------|----------------------------|


  E  E.  E  S S S S S S S E     Q    Q    E.  S E  E     E  Q    E  E  Q    E   
-----3---3--0-0-L-0-0-L-0-0--|--3----3----3---3-3--3--|-----7----------5-------|
-----3---3--x-1---x-3---x-3--|--3----3----3---3-3--3--|-----8----------3-------|
-----0---0--0-0-L-0-0-L-0-0--|--0----0----0---0-0--0--|--0----------2-------2--|
-----0---0--x-2---x-2---x-2--|--0----0----0-----0--0--|----------9-------------|
-----2---2--x-3---x-3---x-3--|--2----2----2-----2--2--|------------------------|
--3--------------------------|--3----3----3-----3--3--|------------------------|


  E  E.  S S  S E  E.  S E     E  E.  E  S S S S S S S E   
-----3-------------0--------|-----3---3--0-0-L-0-0-L-0-0--|
-----0-------------1--------|-----3---3--x-1---x-3---x-3--|
--0----------------0--------|-----0---0--0-0-L-0-0-L-0-0--|
-------------------2--------|-----0---0--x-2---x-2---x-2--|
---------0-5s-3-3------0-3--|-----2---2--x-3---x-3---x-3--|
----------------------------|--3--------------------------|


  Q    Q    E.  S E  E     E  E  Q    E  E  Q       E.  S E  E  Q    E.  S  
--3----3----3---3-3--3--|--------0----------2----|--2---2-3--2--3----3---3-|
--3----3----3---3-3--3--|--------1----------3----|--3---3-3--3--0----0---0-|
--0----0----0---0-0--0--|--------0----2--2--2----|--2-----2--2--0----0---0-|
--0----0----0-----0--0--|--2--2--2----0--0--0----|--0-----0--0--0----0---0-|
--2----2----2-----2--2--|--3--3--3---------------|--------------2----2-----|
--3----3----3-----3--3--|------------------------|--------------3----3-----|


  E  E  E  E  Q    E.  S    E  E  E.  S S S E  E  E     Q    E.  S H         
-------------------0---0-|--0--0--0---0-0-0-0--0--0--|--0----0---0-2--------|
-------------------1---1-|--1--1--1---1-1-1-1--1--1--|--1----1---1-3--------|
-------------------0---0-|--0--0--0---0-0-0-0--0--0--|--0----0---0-2--------|
--------------2----2-----|--2--2--2---2-2-2-2--2--2--|--2----2-----0--------|
--2--2--3--2--3----3-----|--3--3--3---3-3-3-3--3--3--|--3----3--------------|
--3--3--3--3--3----------|---------------------------|----------------------|


  (Get the rhythm for this by listening to the song)                  
                                                     ^      ^    ^    
  H                                                  Q    S Q    E.   
--L--------------------------------------------------0----L-2----0---|
--L--------------------------------------------------1----L-3----1---|
--L--------------------------------------------------0----L-2----0---|
--L--------------------------------------------------2----L-0----2---|
-----------------------------------------------------3----L------3---|
---------------------------------------------------------------------|


  ^                                                                            
  Q    Q    Q    E  E     Q    Q    E.  S E  E     E  E.  E  S S S S S S S E   
--3----3----3----3--3--|--2----2----2---2-3--2--|-----3---3--0-0-L-0-0-L-0-0--|
--0----0----0----0--0--|--3----3----3---3-3--3--|-----3---3--x-1---x-3---x-3--|
--0----0----0----0--0--|--2----2----2---2-2--2--|-----0---0--0-0-L-0-0-L-0-0--|
--0----0----0----0--0--|--0----0----0---0-0--0--|-----0---0--x-2---x-2---x-2--|
--2----2----2----2--2--|------------------------|-----2---2--x-3---x-3---x-3--|
--3----3----3----3--3--|------------------------|--3--------------------------|


  Q    E.  S E.  S E  E     E  Q    E  E  Q    E     E  E.  S S  S E  E.  S E   
--3----3---3-3---3-3--3--|-----7----------5-------|-----3-------------0--------|
--3----3---3-3---3-3--3--|-----8----------3-------|-----0-------------1--------|
--0----0---0-0---0-0--0--|--0----------2-------2--|--0----------------0--------|
--0----0-----0-----0--0--|----------9-------------|-------------------2--------|
--2----2-----2-----2--2--|------------------------|---------0-5s-3-3------0-3--|
--3----3-----3-----3--3--|------------------------|----------------------------|


  E  E.  E  S S S S S S S E     Q    Q    E.  S E  E     E  Q    E  E  Q    E   
-----3---3--0-0-L-0-0-L-0-0--|--3----3----3---3-3--3--|-----7----------5-------|
-----3---3--x-1---x-3---x-3--|--3----3----3---3-3--3--|-----8----------3-------|
-----0---0--0-0-L-0-0-L-0-0--|--0----0----0---0-0--0--|--0----------2-------2--|
-----0---0--x-2---x-2---x-2--|--0----0----0-----0--0--|----------9-------------|
-----2---2--x-3---x-3---x-3--|--2----2----2-----2--2--|------------------------|
--3--------------------------|--3----3----3-----3--3--|------------------------|


  E  E.  S S  S E  E.  S E     E  E.  E  S S S S S S S E   
-----3-------------0--------|-----3---3--0-0-L-0-0-L-0-0--|
-----0-------------1--------|-----3---3--x-1---x-3---x-3--|
--0----------------0--------|-----0---0--0-0-L-0-0-L-0-0--|
-------------------2--------|-----0---0--x-2---x-2---x-2--|
---------0-5s-3-3------0-3--|-----2---2--x-3---x-3---x-3--|
----------------------------|--3--------------------------|


  Q    Q    E.  S E  E     E  Q    E  E  Q    E     E  E.  S S  S E  E.  S E   
--3----3----3---3-3--3--|-----7----------5-------|-----3-------------0--------|
--3----3----3---3-3--3--|-----8----------3-------|-----0-------------1--------|
--0----0----0---0-0--0--|--0----------2-------2--|--0----------------0--------|
--0----0----0-----0--0--|----------9-------------|-------------------2--------|
--2----2----2-----2--2--|------------------------|---------0-5s-3-3------0-3--|
--3----3----3-----3--3--|------------------------|----------------------------|


  E  E.  E  S S S S S S S E     Q    Q    E.  S E  E     E  E  Q    E  E  Q     
-----3---3--0-0-L-0-0-L-0-0--|--3----3----3---3-3--3--|--------0----------2----|
-----3---3--x-1---x-3---x-3--|--3----3----3---3-3--3--|--------1----------3----|
-----0---0--0-0-L-0-0-L-0-0--|--0----0----0---0-0--0--|--------0----2--2--2----|
-----0---0--x-2---x-2---x-2--|--0----0----0-----0--0--|--2--2--2----0--0--0----|
-----2---2--x-3---x-3---x-3--|--2----2----2-----2--2--|--3--3--3---------------|
--3--------------------------|--3----3----3-----3--3--|------------------------|


  E.  S E  E  Q    E.  S    E  E  E  E  Q    E.  S    E  E  E.  S S S E  E  E   
--2---2-3--2--3----3---3-|-------------------0---0-|--0--0--0---0-0-0-0--0--0--|
--3---3-3--3--0----0---0-|-------------------1---1-|--1--1--1---1-1-1-1--1--1--|
--2-----2--2--0----0---0-|-------------------0---0-|--0--0--0---0-0-0-0--0--0--|
--0-----0--0--0----0---0-|--------------2----2-----|--2--2--2---2-2-2-2--2--2--|
--------------2----2-----|--2--2--3--2--3----3-----|--3--3--3---3-3-3-3--3--3--|
--------------3----3-----|--3--3--3--3--3----------|---------------------------|


                                  ^      ^    ^      ^                     
  Q    E.  S H           H        Q    S Q    E.     Q    Q    Q    E  E   
--0----0---0-2--------|--L--------0----L-2----0---|--3----3----3----3--3--|
--1----1---1-3--------|--L--------1----L-3----1---|--0----0----0----0--0--|
--0----0---0-2--------|--L--------0----L-2----0---|--0----0----0----0--0--|
--2----2-----0--------|--L--------2----L-0----2---|--0----0----0----0--0--|
--3----3--------------|-----------3----L------3---|--2----2----2----2--2--|
----------------------|---------------------------|--3----3----3----3--3--|


  Q    Q    E.  S E  E     E  E.  E  S S S S S S S E   
--2----2----2---2-3--2--|-----3---3--0-0-L-0-0-L-0-0--|
--3----3----3---3-3--3--|-----3---3--x-1---x-3---x-3--|
--2----2----2---2-2--2--|-----0---0--0-0-L-0-0-L-0-0--|
--0----0----0---0-0--0--|-----0---0--x-2---x-2---x-2--|
------------------------|-----2---2--x-3---x-3---x-3--|
------------------------|--3--------------------------|


  Q    E.  S E.  S E  E     E  Q    E  E  Q    E     E  E.  S S  S E  E.  S E   
--3----3---3-3---3-3--3--|-----7----------5-------|-----3-------------0--------|
--3----3---3-3---3-3--3--|-----8----------3-------|-----0-------------1--------|
--0----0---0-0---0-0--0--|--0----------2-------2--|--0----------------0--------|
--0----0-----0-----0--0--|----------9-------------|-------------------2--------|
--2----2-----2-----2--2--|------------------------|---------0-5s-3-3------0-3--|
--3----3-----3-----3--3--|------------------------|----------------------------|


                                                             ^                  
  E  E.  E  S S S S S S S E     Q    E.  S S S S S S S E     W                  
-----3---3--0-0-L-0-0-L-0-0--|-----------0-0-L-0-0-L-0-0--|--3----------------||
-----3---3--x-1---x-3---x-3--|-----------x-1---x-3---x-3--|--3----------------||
-----0---0--0-0-L-0-0-L-0-0--|-----------0-0-L-0-0-L-0-0--|--0----------------||
-----0---0--x-2---x-2---x-2--|--0----0---x-2---x-2---x-2--|--0----------------||
-----2---2--x-3---x-3---x-3--|--2----2---x-3---x-3---x-3--|--2----------------||
--3--------------------------|--3----3--------------------|--3----------------||




Duration Legend
---------------
W - whole
H - half
Q - quarter
E - 8th
S - 16th
T - 32nd
X - 64th
. - note dotted
|-n-|  - n-tuplets


Tablature Legend
----------------
L - tied note
x - dead note
g - grace note
(n) - ghost note
> - accentuded note
NH - natural harmonic
AH - artificial harmonic
TH - tapped harmonic
SH - semi harmonic
PH - pitch harmonic
h - hammer on
p - pull off
b - bend
br - bendRelease
pb - preBend
pbr - preBendRelease
brb - bendReleaseBend
\n/ - tremolo bar dip
\n - tremolo bar dive
-/n - tremolo bar Release up
/n\ - tremolo bar inverted dip
/n - tremolo bar return
-\n - tremolo bar Release down
S - shift slide
s - legato slide
/ -  slide into from below or out of upwards
\ -  slide into from above or out of downwards
~ - vibrato
W - wide vibrato
tr - trill
TP - tremolo picking
T - tapping
S - slap
P - pop
< - fade in
^ - brush up
v - brush down
Tap to rate this tab
 
# A B C D E F G H I J K L M N O P Q R S T U V W X Y Z