Song name
# A B C D E F G H I J K L M N O P Q R S T U V W X Y Z

Little Feat - Spanish Moon tab

Help us improve GuitareTab! Take a short survey!
 E ---------------|---------------|---------------|
 B ---------------|---------------|---------------|
 G ---------------|---------------|---------------|
 D ---------------|---------------|---------------| x3
 A ---------------|---------------|---3--5--3-----|
 E ----0--3--5----|-0--3--5--3-5--|-5------------5|





 E ----------------|--------------|---------------|
 B ----------------|--------------|---------------|
 G ----------------|--------------|---------------|
 D ----------------|--------------|---------------|
 A ----------------|--------------|---3--5--3-----|
 E -----0--3--5----|-0--3--5--3-5-|-5------------2|

Related for Spanish Moon tab