Song name
# A B C D E F G H I J K L M N O P Q R S T U V W X Y Z

Little Green Cars - Harper Lee tab

Solo to "Harper Lee"
By Little Green Cars
From Absolute Zero released March 26, 2013
Tabbed by 400_lux

____________________

Solo begins at 2:11
___________________


e |-----------------------------------------------------------------------|
B |-----------------------------------------------------------------------|
G |--------------------------------------------16-14-12-\9-999-9-9-9-9----|
D |-9---9---9---9-9-7-5-7-9----10--9-12-17--17----------------------------|
A |-----------------------------------------------------------------------|
E |-----------------------------------------------------------------------|


CONT'D.
e |------------------------------------------------------------------------|
B |------------------------------------------------------------------------|
G |-\7-7-7-7-7-7-5-4---------------------------------------------16-14-12--|
D |-------------------9---9---9---9-9-7-5-7-9----10--9-12-17--17-----------|
A |------------------------------------------------------------------------|
E |------------------------------------------------------------------------|


CONT'D.
e |-------------------------------------|            ________________
B |-------------------------------------|            
G |-\9-999-9-9-9-9-\7-7-7-7-7-7-7-4-----|            solo ends at 2:40
D |-------------------------------------|            ________________
A |-------------------------------------|
E |-------------------------------------|
Tap to rate this tab
 
# A B C D E F G H I J K L M N O P Q R S T U V W X Y Z