Song name
# A B C D E F G H I J K L M N O P Q R S T U V W X Y Z

Little Green Cars - The John Wayne tab

-------------------------------------------------------------------------------
                             The John Wayne - Little Green Cars
-------------------------------------------------------------------------------
Tabbed by:m1tchie
E-mail:mitchell.eastment1996@gmail.com

Tuning:D#ADGBe

Hey people! I really love this song and I didnt find a tab for it so I put this
together. Its fairly simple and good fun to play! To make things a little more simple 
its just
an F# barre chord played and then when it sounds like the chord changes all it is, is 
the bass note of the chord changing down. You'll need to tune the bottome E string down to D#
as this is the only way I can find it working (unless you play an A shape barre 
chord...). So enjoy! - Mitch



VERSE

e|---------------------------------------------------------------------------|
B|---------------------------------------------------------------------------|
G|-------3-----3-----3-----3-----3-----3-----3-----3-----3-----3-------------|
D|-------4-----4-----4-----4-----4-----4-----4-----4-----4-----4-------------|
A|-------4-----4-----4-----4-----4-----4-----4-----4-----4-----4-------------|
E|-------3-----3-----3-----3-----2-----2-----0-----0-----2--/--3-------------|

ITS EASY TO FALL IN LOVE...

e|---------------------------------------------------------------------------|
B|---------------------------------------------------------------------------|
G|-----3-----3-----3-----3-----3-----3-----3---------------------------------|
D|-----4-----4-----4-----4-----4-----4-----4---------------------------------|
A|-----4-----4-----4-----4-----4-----4-----4---------------------------------|
E|-----3-----3-----3-----3-----3-----3-----3---------------------------------|


CHORUS

e|-----2----------------------------------------------------------------------|
B|-----4----------------------------------------------------------------------|
G|-----4----------------------------------------------------------------------|
D|-----4----------------------------------------------------------------------|
A|-----2----------------------------------------------------------------------|
E|-----x----------------------------------------------------------------------|

AND I....



AFTER THIS THE STRUMMING BECOMES MORE CONSTANT (YOULL BE ABLE TO PICK IT UP :))



SOLO

e|---------------------------------------------------------------------------|
B|---------------------------------------------------------------------------|
G|---------------------------------------------------------------------------|
D|---------------------------------------------------------------------------|
A|-----4--4--4--4--0--0--4--4--4--4--4--6------------------------------------|
E|-----------------------------------------7--7--5--3--5--7------------------|

REPEAT

Enjoy :)

************************************

| /   slide up
| \   slide down
| h   hammer-on
| p   pull-off
| ~   vibrato
| +   harmonic
| x   Mute note
| b   Bend
| pb  Pre-bend
| br  Bend release
| pbr Pre-bend release
| brb Bend release bend

************************************
Tap to rate this tab
 
# A B C D E F G H I J K L M N O P Q R S T U V W X Y Z