Song name
# A B C D E F G H I J K L M N O P Q R S T U V W X Y Z

Little Green Cars - The Consequences Of Not Sleeping tab

Great song from a great band. Not necessarily note for note but it's pretty darn 
close. Figured it out by ear using a slow-down software and by watching the live 
acoustic version by the band on YouTube which can be found here:
http://www.youtube.com/watch?v=Pq05IFlpMeE

Tuning: Open G [D-G-D-G-B-D (low to high)]

Capo 3


Intro/Verse:

|----------------------------------------------------------------|
|-----3-----------3-----3----------0------------------0----------|
|-----0-----0-----------0-----------------0-----0----------------|
|-----4--------4--------4----------0---------0--------0----------|
|-------------------------------0------0-------------------------|
|--4-----4-----------4-----0-4---------------------0-------------|


|---------------------------------------------0----------------|
|---------0----------1-----------1------------------------1----|
|--------------------------0------------0------------0---------|
|------------0h2---------------------2------------2------------|
|--0h2h4----------0-----------0------------0------------0------|
|-----------------------2--------------------------------------|


|----------0-----------------------0-----------------------0---------------|
|----------------------1-----------------------1-----------------------1---|
|----------------0-----------------------0-----------------------0---------|
|-------0-----------0-----------0-----------0-----------0-----------0------|
|--0h2---------------------0h2---------------------0h2---------------------|
|-------------0-----------------------0-----------------------0------------|



|----------0----------------|   
|---------------------------|
|----------------0----------|
|-------0-----------0-------|
|--0h2----------------------|
|-------------0-------------|


Pre-Chorus (1st time)
                                             x3             Then...
|-----------------0h2p0---------------------------|         |-------------|
|--0h1--0h1---0----------0h1p0--------0h1p0-------|         |----3--------|
|-------------------------------0h2p0-------------|         |----0--------|
|--0h2--0h2---0-----------------------------------|         |----4--------|
|--0----0-----0-----------------------------------|         |-------------|
|-------------------------------------------------|         |----4--------|




Chorus (He adds a couple little hammer-ons and pull-offs, which I left out)
                                                                              x3
|----------------------------------------------------------------------------------|
|-----1-----------1-------1------------1------0-----------0------0-----------0-----|
|-----------0-------------------0-------------------0------------------0-----------|
|-----2-------------------2---------2---------0--------0---------0--------0--------|
|--------------2------0---------------------------------------0--------------------|
|--2-----2-------------------2------------0------0------------------0--------------|


|-----------------------------------------------------------|
|-----------0------------0------------0------------0--------|
|-----0------------0------------0------------0--------------|
|--------0------------0------------0------0-----0-----------|
|--0------------2------------4------------------------------|
|-----------------------------------------------------------|

                                                   x2
|------------------------0-------------------------0---|
|-----------1-------------------------1----------------|
|-----0------------0------------0------------0---------|
|--------2------------2------------2------------2------|
|--0------------0------------0------------0------------|
|------------------------------------------------------|


|---------------------------------------------------------------------------------|
|-----0------------0------0------------0------1------------1------3-----------3---|
|------------0-------------------0-------------------0-------------------0--------|
|-----0---------0---------0---------0---------2---------0---------4---------------|
|--0-------------------0-------------------0--------------------------------4-----|
|---------0-------------------0-------------------2------------4------4-----------|


|------------------------------------------------|
|-----0------------0-------------0h1---0---------|
|------------0------------0----------------------|
|-----0---------0------------0---0h2---0---------|
|--0-------------------0-------------------------|
|---------0--------------------------------------|


|--------------------------------------0---------|
|-----0------------0-------------0h1---0---------|
|------------0------------0----------------------|
|-----0---------0------------0---0h2---0---------|
|--0-------------------0-------------------------|
|---------0--------------------------------------|

                                             x2
|------------------------------------------------|
|-----0------------0-------------0h1---0---------|
|------------0------------0----------------------|
|-----0---------0------------0---0h2---0---------|
|--0-------------------0-------------------------|
|---------0--------------------------------------|


Back to verse, then...


Pre-chorus (2nd time) x2
                                             x2             Then...
|-----------------0h2p0---------------------------|         |----------------------|
|--0h1--0h1---0----------0h1p0--------0h1p0-------|         |--------------3-------|
|-------------------------------0h2p0-------------|         |--1-----0-------------|
|--0h2--0h2---0-----------------------------------|         |--2-----0-----4-------|
|--0----0-----0-----------------------------------|         |----------------------|
|-------------------------------------------------|         |--2-----0-----4-------|


Back to Chorus, then...


End of 2nd chorus:
                                             x4
|-----------------------------------------------------| 
|-----0------------0-------------0h1---0--------------| 
|------------0------------0---------------------------| 
|-----0---------0------------0---0h2---0--------------| 
|--0-------------------0------------------------------| 
|---------0-------------------------------------------|


End on...

|---0------| 
|---0------| 
|----------| 
|----------| 
|----------| 
|----------|
Tap to rate this tab
# A B C D E F G H I J K L M N O P Q R S T U V W X Y Z