Little Joy - Brand New Start tab

|---------------------------|----------------------------|--------------------------|
|---------------------------|----------------------------|--------------------------|
|--9/11--9----------11-9----|-9/11--9--------------------|-9/11--9----------11-9----|
|----------11-9-7--------11-|---------11-9-7------7-9-11-|---------11-9-7--------11-|
|-----------------9---------|----------------9-11--------|----------------9---------|
|---------------------------|----------------------------|--------------------------|

|--------------------------------|
|--------------------------------|
|-----------------------------9~-|
|-------7------------------11----|
|--9-11---9-11-7-9-7-9/11--------|
|--------------------------------|
Tap to rate this tab
 
# A B C D E F G H I J K L M N O P Q R S T U V W X Y Z