Song name
# A B C D E F G H I J K L M N O P Q R S T U V W X Y Z

Little Joy - With Strangers chords

Highlighted       Show chord diagrams
-------------------------------------------------------------------------------
			     WITH STRANGERS - LITTLE JOY
-------------------------------------------------------------------------------

Tuning: Standard

Chords used:

      Fm       A#      Cm        C7       G        G#        D#

e|----1--------6--------3--------0--------3--------4---------6---------------|
B|----1--------6--------4--------1--------0--------4---------8---------------|
G|----1--------5--------5--------3--------0--------5---------8---------------|
D|----3--------4--------5--------2--------0--------6---------8---------------|
A|----3--------4--------3--------3--------2--------6---------6---------------|
E|----1--------6--------x--------x--------3--------4---------x---------------|



                            Fm
I bet you're wondering how i knew
     A#                     Cm     C7
That this would come to an end
                 Fm  
He stole your heart from you
     G                         Cm
So you tossed me out to the wind


                        Fm
I keep pretending not to care
    A#                     Cm        C7
Oh the winter scent in her hair
           Fm
Compels my hands to do
     G                      Cm 
The things my heart wouldn't dare


                 G#        D#
I'll keep holding on to you
        G               Cm       C7           Fm
See no use perfecting lives with strangers
           Cm          G
If only you, if only now


                          Fm
And in the twilight of this hour
    A#                     Cm     C7
When fools are mistaken for men
            Fm 
This shadow suits me well
     G                     Cm  
My regrets are faced in the end


                G#          D#  
I'll keep holding on to you
       G              Cm          C7         Fm
See no use perfecting lives with strangers
         Cm            G
If only you, if only now


               G#          D#  
I'll keep holding on to you
       G              Cm          C7         Fm
See no use perfecting lives with strangers
         Cm            G
If only you, if only now
Tap to rate this tab
# A B C D E F G H I J K L M N O P Q R S T U V W X Y Z