Song name
# A B C D E F G H I J K L M N O P Q R S T U V W X Y Z

Little Man Tate - Boy In The Anorak tab

Thought I'd have a go as there are no good tabs for this great song!
Played by the great Maz:

e|---------------------------------------------------------------------------|
B|-----11-9-----11-9--9--9--9--9--9----12-12-9-9------9-------9--9-----------|
G|-2--------10------11-11-11-11-11---------------11-11--9----9--9--9--11---9-|
D|---------------------------------------------------------------------------|
A|---------------------------------------------------------------------------|
E|---------------------------------------------------------------------------|

e|---------------------------------------------------------------------------|
B|------9-------------9----------------9--------12-12-9-9--------------------|
G|-9-11---11-9---9-11---11-9------9-11---11-9-------------11-11-9------------|
D|---------------------------11----------------------------------------------|
A|---------------------------------------------------------------------------|
E|---------------------------------------------------------------------------|
                          
e|---------------------------------------------------------------------------|
B|------9-------------9----9-----------9--------12-12-9-9--------------------|
G|-9-11---11-9---9-11---11--------9-11---11-9-------------11-11-9------------|
D|---------------------------11----------------------------------------------|
A|---------------------------------------------------------------------------|
E|---------------------------------------------------------------------------|


Tap to rate this tab
 
# A B C D E F G H I J K L M N O P Q R S T U V W X Y Z