Guitaretab - guitar tabs
Song name
# A B C D E F G H I J K L M N O P Q R S T U V W X Y Z

Little Man Tate - Sexy In Latin tab

Artist: Little Man Tate
Song Tile: Sexy In Latin
Album: Man, I Hate Your Band 2006
Tuning: Standard Tuning

Chords used:

   C   F   Em  Dm  G   D#m E  G#  F* G* G#*
e|-8---8---7---6---10--7---7--11--1--3--4-|
B|-8---10--8---7---12--8---9--13--1--3--4-|
G|-9---10--9---8---12--9---9--13--2--4--5-|
D|-10--10--9---8---12--9---9--13--3--5--6-|
A|-10--8---7---6---10--7---7--11--3--5--6-|
E|-8---X---X---X---X---X---X--x---1--3--4-|

Intro
    CC C C C C XFXX  -X8(or4) on the last time don't use the X

C
Well our mums got talkin at the village store
Em
I was three you were four
F
You looked lovely thats for sure
G   F       Em      Dm
Just somthin about you


C
Together we went everywhere
Em
you scratched my face i pulled you hair
F                    (Dm/F F - Optional, its only used in the 2nd verse but it sounds better)
you sent me tumblein down the stairs
G                     (Em/G)
Just somthin about you


Bridge - Here you can use your fingers to reach the right way.
Dm                         Em             D#m
You must have known that I want you (that I want you)
Dm                         Em      G
You must have known that I want you dont you
[ Tab from: http://www.guitaretab.com/l/little-man-tate/72768.html ]
Optional:
  |----------Dm------------||-------Em------||D#m||--------Dm------------|
e|------5-----------5-----------7-------7-----6--------5-----------5-----|
B|--------6-----------6-----------8-----8-----7----------6-----------6---|
G|---7------7-----------7/----------9-----9/----8----7-----7-----------7-|
D|-7--------------7-----------9--------------------7-------------7-------|
A|-5------------5-----------7-----------7-----6----5-----------5---------|
E|-----------------------------------------------------------------------|


Chorus
C         Em
Somthings happenin
F                            G
It's written on the wall that you're sexy in Latin
C         E
This time,come on
F                   G
Everthings changin n we can't hold on.

C-Em-F-G  X2

C (optional playing while the solo)


Verse 2
C
We'd stay out drinking in the park
Em
I'd walk you home after dark
F                Dm/F F
I did'nt mind it wasnt far
G       F       Em      Dm
Just somthin about you


C
You went to university
Em
You lost your virginity
F
Saw more of him and less of me
G                     (Em/G)
Just somthin about you


Bridge
Dm                         Em             D#m
You must have known that I want you (that I want you)
Dm                         Em      G
You must ahve known that I want you dont you


Chorus
C         Em
Somthings happenin
F                            G
It's written on the wall that you're sexy in Latin
C         E
This time,come on
F                   G
Everthings changin n we can't hold on.


C-Em-F-G-F  X2


Verse 3 - This part was adjusted in an acoustic guitar... I hope It's not grong XD
C
Well we're not friends anymore
Em
I'm twenty three youre twenty four
F*
youre still gorgeous thats for sure
G*
still somthin about you

C
Now we've done it everywhere
Em
You scratch my back,I pull your hair
F
We've even done it on the stairs
G                             G#
Theres just somthin about you.

C-Em-F-G  X2
Related for Sexy In Latin tab
Sexy In Latin chords by Little Man Tate