Song name
# A B C D E F G H I J K L M N O P Q R S T U V W X Y Z

Little Man Tate - House Party At Boothys Acoustic tab

--------------------------------------------------------------------------
--------------------------------------------------------------------------
Little Man Tate - House Party at Boothys (acoustic)

Great band, great song, simple to play!

Its not 100% correct but its extremely close. Any corrections, mail me

--------------------------------------------------------------------------

The band:

Jon Windle (vocals + guitar), 
Maz (guitar), 
Ben Surtees (bass), 
Dan Fields (drums)

--------------------------------------------------------------------------

Chords in rough order of apperence

  C Am Csus4 G C(8.fr) Em(7.fr) Am(5.fr) Cm(8.fr) F(8.fr) G(10.fr) 

e-0-0---0----3---8--------7--------5--------8--------8-------10--------|
B-1-1---1----0---8--------8--------5--------8--------10------12--------|
G-0-2---0----0---9--------9--------5--------8--------10------12--------|
D-2-2---3----0---10-------9--------7--------10-------10------12--------|
A-3-0---3----2---10-------7--------7--------10-------8-------10--------|
E-x-x---x----3---8--------x--------5--------8--------x-------x---------|

   F#(9.fr) Em 

e-----9-----0-|
B-----11----0-|
G-----11----0-|
D-----11----2-|
A-----9-----2-|
E-----x-----0-|

--------------------------------------------------------------------------

Intro:

Jon plays this:

C Em Am Em Csus4 C Csus4 G

While Maz plays this:

Listen to get the timing

e-------------------------------------------------------------------|
B-------------------------------------------------------------------|
G-------------------------------------------------------------------|
D--------2-5---2---------2-5---2-5-7---7-6-5---5-6-7---6-7-9--------|
A--3---5---------5-3---5--------------------------------------------|
E-------------------------------------------------------------------|

--------------------------------------------------------------------------

Verse:

Maz plays this on his own while Jon sings:

There are two different chord sequences per verse, both are played twice.

Sq1 = C(8.fr) Em(7.fr) Am(5.fr) Em(7.fr) Cm(8.fr) Em(7.fr) F(8.fr) G(10.fr)

Sq2 = C(8.fr) Em(7.fr) Am(5.fr) Em(7.fr) Cm(8.fr) Em(7.fr) F(8.fr) F#(9.fr)

      G(10.fr)

The order of the sequences goes:

sq1 sq2 sq2 sq1


--------------------------------------------------------------------------

Chorus:

Both Jon and Max play this once:

Csus4 G C Em G C G C


--------------------------------------------------------------------------

The Intro is then played again


--------------------------------------------------------------------------

Verse then repeated


--------------------------------------------------------------------------

Chords of the intro are then played but each chord is only strummed once.

--------------------------------------------------------------------------

Chorus

--------------------------------------------------------------------------

Intro chords then repeated once (with slight variation, see below) and 
then played 3 times with Jon Maz and Ben all singing naaa na na naaa etc 
etc to the tune of the little riff Maz plays at the beginning

First run through of these chords has a slight variation. The Csus4 isnt
played and instead the C chord is strummed a couple of times. Just before 
moving to the G this is strummed once:


e--0------|
B--2------|
G--0------|
D--3------|
A--4------|
E--0------|


Its just the shape of the C chord but shifted up one fret. Not sure its a 
real chord but its what they play and it sounds good.

--------------------------------------------------------------------------

They then end on one strum of a C chord.

--------------------------------------------------------------------------

And thats it!

--------------------------------------------------------------------------
--------------------------------------------------------------------------




p  = pull off
h  = hammer on
/  = slide up
\  = slide down
~  = vibrato
x  = muted note
pm = palm mute
Tap to rate this tab
# A B C D E F G H I J K L M N O P Q R S T U V W X Y Z