Guitaretab - guitar tabs
Song name
# A B C D E F G H I J K L M N O P Q R S T U V W X Y Z

Little Man Tate - What What You Got tab

its a bitg rough but w/e

(What what you got...)
Verse- Em C G D

(and she doesn't seem to care at all..)
Bridge- C B Am G D

(No it doesn't matter, no not at all...)
Chorus- G D Em C

2nd guitar capo 3rd fret

---------------------------|
-7-7-9-9-7-7-7-9-9-9-9-----|
-9-9-9-9-9-9-9-9-9-9-9-----|
---------------------------|
---------------------------|
---------------------------|


Repeats a lot through the song

Slow bit at the end, capo 3rd fret
[ Tab from: http://www.guitaretab.com/l/little-man-tate/77865.html ]
-----0------0-----0--------------0---------------------------0-------------------|
-------0------0-----------7------------------------9-----------------------------|
-----------------------------8------8---8-------------9----------9-------9-------|
-6-------6------6------9------9------9-------11--------11---------11-------------|
---------------------------------------------------------------------------------|
---------------------------------------------------------------------------------|

--------------0------------|
----5----------------------|
-------6---------6------6--|
-7--------7----------7-----|
---------------------------|
---------------------------|
Related for What What You Got tab
Advertisement will be closed in 10 seconds