Song name
# A B C D E F G H I J K L M N O P Q R S T U V W X Y Z

Little Man Tate - This Girl Isnt My Girlfriend tab

Help us improve GuitareTab! Take a short survey!
--------------------------------------------------------------------------
          This Girl Isnt My girlfriend - Little Man Tate
--------------------------------------------------------------------------
Tabbed by: jonno dark
Email:jonno_dark@msn.com

Tuning:Standard

e|---------33---------------------------33--------------------------------|
B|---------33---------------------------33--------------------------------|
G|-------------3-4--------3-3---------------3-4-------3----------[x3]-----|
D|----5-5------------3-3------3-4--5-5-----------3-3----3-----------------|
A|------------------------------------------------------------------------|
E|------------------------------------------------------------------------|

Play the G Barre chord over intro

e|------------------------------------------------------------------------|
B|------------------------------------------------------------------------|
G|--------7-9---------[x3]------------------------------------------------|
D|----7/9-----8-10--------------------------------------------------------|
A|----------------------------12-12-12-12-12-12-12-12---------------------|
E|--------------------------------------------------10-10-10-10-10-10-----|

Over this section play the Chorus Chords.and play this section in the chorus

play these chords over the verse:

G, C, A, D

e|----3-----3-----5----5--------------------------------------------------|
B|----3-----5-----5----7--------------------------------------------------|
G|----4-----5-----6----7--------------------------------------------------|
D|----5-----5-----7----7--------------------------------------------------|
A|----5-----3-----7----5--------------------------------------------------|
E|----3-----x-----5----x--------------------------------------------------|


  The Prechorus chords are : C G F C G D
e|----3-----3----1-----3---3---5--------------------------------------------|
B|----5-----3----1-----5---3---7--------------------------------------------|
G|----5-----4----2-----5---4---7--------------------------------------------|
D|----5-----5----3-----5---5---7--------------------------------------------|
A|----3-----5----3-----3---5---5--------------------------------------------|
E|----x-----3----1-----x---3---x--------------------------------------------|

   The chorus chords are : G C G C Em D G G
e|----3--3--3--3---0--5-----------------------------------------------------|
B|----3--5--3--5---0--7-----------------------------------------------------|
G|----4--5--4--5---0--7-----------------------------------------------------|
D|----5--5--5--5---2--7-----------------------------------------------------|
A|----5--3--5--3---2--5-----------------------------------------------------|
E|----3--x--3--x---0--x-----------------------------------------------------|


| /  slide up
| \  slide down
| h  hammer-on
| p  pull-off
| ~  vibrato
| +  harmonic
| x  Mute note
==========================================================================
Related for This Girl Isnt My Girlfriend tab