Song name
# A B C D E F G H I J K L M N O P Q R S T U V W X Y Z

Little Mix - Change Your Life tab

sooo pretty much I took version 1 of this song and turned it into a fun way to play. I
think it may be a bit difficult for some, but its a good one if playing alone or with a
friend! don't forget feedback is helpful :)
Capo 2. I would recommend memorizing chord pattern C, Em, Dsus4, D. it will help a lot!
also shape them before picking :)

Intro:
e|------0--0--0--0------0--0--0--0-------3--3--3--3----2--2--2--2-----------|
B|-----1--1--1--1-----0--0--0--0-------3--3--3--3-----3--3--3--3------------|
G|--------------------------------------------------------------------------|
D|----------------------------------0----------------0----------------------|
A|-3------------------------------------------------------------------------|
E|-----------------0--------------------------------------------------------|
Play 3 times :)

Verses:
Strum each chord once, then slap/knock lower or upper part of wood depending on
preference. it'd go like:
C, hit, hit, hit
Em, hit, hit, hit,
Dsus4, hit, hit, hit
D, hit, hit, hit,
and so on

then for the prechorus
"Your not the only one so let them criticize" part is like the climatic moment!
e|---0--0--0---0-0------0--0--0--0-0-----3--3--3--3-3--2--------------------|
B|--1--1--1----1-1-----0--0--0---0-0----3--3--3---3-3--3--------------------|
G|-------------0-0---------------0-0--------------2-2--2--------------------|
D|-------------2-2---------------2-2---0----------0-0--0--------------------|
A|-3-----------3-3---------------2-2--------------x-x--x--------------------|
E|-------------x-x---0-----------0-0--------------x-x--x--------------------|

For the chorus its just a DDUUDU pattern with C, Em, Dsus4, and D on repeat!

Go through intro, prechorus, and chorus again :)

For the "Change, change your life, take it all" part with just percussion do the wood
knocking again, follow rhythm as best as possible

Then you have your bridge which honestly im not 100% sure if I have it so im not
including it. it goes fast! if you have any ideas comment below :)

then you have this beautiful picking again:
e|------0--0--0--0------0--0--0--0-------3--3--3--3----2--2--2--2-----------|
B|-----1--1--1--1-----0--0--0--0-------3--3--3--3-----3--3--3--3------------|
G|--------------------------------------------------------------------------|
D|----------------------------------0----------------0----------------------|
A|-3------------------------------------------------------------------------|
E|-----------------0--------------------------------------------------------|

One more chorus, and your done. Yay!

ENJOY, COMMENT, RATE, DO THE NORMAL
Tap to rate this tab
# A B C D E F G H I J K L M N O P Q R S T U V W X Y Z