Song name
# A B C D E F G H I J K L M N O P Q R S T U V W X Y Z

Little Mix - Going Nowhere tab

-------------------------------------------------------------------------------
                             GOING NOWHERE - Little Mix
-------------------------------------------------------------------------------

Tuning:

    C#m                     G#

e|--4-----5p4---4-5-4--------------------------------------------------------|
B|--5---------7-------7-5---4------------------------------------------------|
G|--6-----------------------5--5---------------------------------------------|
D|--6-----------------------6----6-------------------------------------------|
A|--4-----------------------6------------------------------------------------|
E|-------------------------(4)-----------------------------------------------|
Tap to rate this tab
 
# A B C D E F G H I J K L M N O P Q R S T U V W X Y Z