Little Red - Rock It tab

Little Red - Rock It
Tabbed by - notthemessiah

This is an awesome song off a the great second album by Little Red.  Didn't see a tab up 
so thought I'd give it a go.

Intro/Verse:
(This part is played on piano, but this is how I play it on guitar)
e	|---------------------------------------------------|
B	|----10-10-8-10--5--6---10-10-8-10-8-10-------------|
G	|----10-10-9-10--5--7---10-10-9-10-9-10-------------|
D	|---------------------------------------------------|
A	|---------------------------------------------------|
E	|---------------------------------------------------|

e	|---------------------------------------------------|
B	|----10-10-8-10--5--6---11-11-10-10-8-8-10----------|
G	|----10-10-9-10--5--7---10-10-10-10-9-9-10----------|
D	|---------------------------------------------------|
A	|---------------------------------------------------|
E	|---------------------------------------------------|

Guitar riff that comes in the second half of the verse:

e	|----------------------------|
B	|----------------------------|
G	|----------------------------|
D	|------10------7-------------|
A	|----8----8-10---8-8---------|
E	|----------------------------|

Chorus:

Distorted Guitar Riff/Synthesizer:
e	|------------------------------------------|
B	|------------------------------------------|
G	|------------------7-----7-7---------------|
D	|-------------7-10-----------10-10-7----7--|
A	|---8-8-10-10------------------------10----|
E	|------------------------------------------|

e	|------------------------------------------|
B	|------------------------------------------|
G	|------------------------------------------|
D	|--7-10-7------------------------7---------|
A	|---------10-8-5-8-----8-8-10-10---10-8----|
E	|------------------------------------------|

In between each repetition of the chorus the guitar plays:
e	|--------------------|
B	|--------------------|
G	|----10-10-10-10-----|
D	|--------------------|
A	|--------------------|
E	|--------------------|

The Post chorus is made up of a synthesizer going between A and G notes.  just an 
of a way to play it on guitar:

e	|---------------------|
B	|---------------------|
G	|---------------------|
D	|---x-7-x-7-x-5-x-5---|
A	|---------------------|
E	|---x-5-x-5-x-3-x-3---|

Repeat the verse playing the guitar riff the whole way through

Play the chorus again a few times, then finish with:

e	|--------------------|
B	|--------------------|
G	|----10-10-10-10-----|
D	|--------------------|
A	|--------------------|
E	|--------------------|


Thanks.
Tap to rate this tab
 
# A B C D E F G H I J K L M N O P Q R S T U V W X Y Z