Song name
# A B C D E F G H I J K L M N O P Q R S T U V W X Y Z

Little Scream - The Heron And The Fox tab

http://littlescream.com/

Guitar is tuned down half a step. From high to low: D#, A#, F#, C#, G#, D#.

This is finger-picked in swing-time.

INTRO

      E  E  S S E     E  E  S S E     E  E  S S E     E  E  S S E
D#||--3------------|--3------------|--2------------|--0------------|
A#||----------0----|----------0----|----------0----|----------3----|
F#||-----0------0--|-----0------0--|-----0------0--|-----0------0--|
C#||---------------|---------------|---------------|---------------|
G#||---------------|---------------|---------------|---------------|
D#||--3-----3------|--3-----3------|--3-----3------|--3-----3------|

VERSE 1

  E  E  S S E     E  E  S S E     E  E  S S E     E  E  S S E     E  E  S S E
--0-------3----|--2------------|----------0----|--0------------|--0-------0----|
---------------|----------0----|--4---------4--|----------4----|---------------|
-----0------0--|-----2------2--|-----4---------|-----4------4--|-----0------0--|
---------------|--0-----0------|--4-----4------|--4-----4------|---------------|
--3-----3------|---------------|---------------|---------------|--3-----3------|
---------------|---------------|---------------|---------------|---------------|


  E  E  S S E     E  E  S S E     E  E  S S E     E  E  S S E     E  E  S S E
--0-------0----|---------------|---------------|--0-------3----|--2------------|
---------------|--3-------3----|--1-------1----|---------------|----------0----|
-----0------0--|-----0------0--|-----0------0--|-----0------0--|-----2------2--|
---------------|---------------|---------------|---------------|--0-----0------|
--3-----3------|--3-----3------|--3-----3------|--3-----3------|---------------|
---------------|---------------|---------------|---------------|---------------|


  E  E  S S E     E  E  S S E     E  E  S S E     E  E  S S E     E  E  S S E
----------0----|--0-------0----|--0-------0----|---------------|---------------|
--4------------|---------------|---------------|--3-------3----|--1-------1----|
-----4------4--|-----0------0--|-----0------0--|-----0------0--|-----0------0--|
--4-----4------|---------------|---------------|---------------|---------------|
---------------|--3-----3------|--3-----3------|--3-----3------|--3-----3------|
---------------|---------------|---------------|---------------|---------------|


  E  E  S S E     E  E  E  E     E  E  E  E     E  E  E  E     E  E  S S E
--0-------3----|--2-----------|--2-----------|--2-----------|--3------------|
---------------|--------------|--------------|--------------|----------0----|
-----0------0--|-----2-----2--|-----2-----2--|-----2-----2--|-----0------0--|
---------------|--0-----0-----|--0-----0-----|--0-----0-----|---------------|
--3-----3------|--------------|--------------|--------------|---------------|
---------------|--------------|--------------|--------------|--3-----3------|


  E  E  S S E     E  E  S S E     E  E  S S E
--3------------|--2------------|--0------------||
----------0----|----------0----|----------3----||
-----0------0--|-----0------0--|-----0------0--||
---------------|---------------|---------------||
---------------|---------------|---------------||
--3-----3------|--3-----3------|--3-----3------||


Repeat. Some chords are held longer than others on different repeats; listen to the song 
for the exact durations.
Tap to rate this tab
# A B C D E F G H I J K L M N O P Q R S T U V W X Y Z