Song name
# A B C D E F G H I J K L M N O P Q R S T U V W X Y Z

Little Steven - Fear tab

Tabbed by graham King / Fender1012
Reg tunning - e/a/d/g


G--------------8----8-11-10-8-----------------------------------| 
D--10-10-8-8-10---10-----------10-8----10-8----8------------6---|x2
A-----------------------------------10------10---10-8-6---------|
E------------------------------------------------------8-6------|

G--------------------------7----9----11--9--7-------------------|
D---------------7----7--9----9-----------------7----------------|
A---------7--9----9---------------------------------------------|x3
E--7--10--------------------------------------------------------|
Tap to rate this tab
# A B C D E F G H I J K L M N O P Q R S T U V W X Y Z