Little Wings - Sandbar tab

Intro/Chorus:                        
E-------12-10-8-8-8-h10-7---------|
A---------------------------------|
D-9-9-7-------------------9-9-7---| x2 and play half of that the first time.
G---------------------------------|
B---------------------------------|
E --------------------------------|

Then..
E------------------------------------------------------------|
A-----10-12-12-10--------------------------------------------|
D-7-9------------9-7-5-9-9-9-9-7-5-5-5-5-S9-9-9-9-9-7-5-h7---|
G------------------------------------------------------------|
B------------------------------------------------------------|
E -----------------------------------------------------------|

Then some of this...
E---------------------------------------------|   Then mess around with  
A-----8-8-h10-10-8---------8-10-10-10-8-------| that and the chorus together.
D-7-9--------------9-7-7-9--------------9-7---|
G---------------------------------------------|
B---------------------------------------------|
E---------------------------------------------|
Tap to rate this tab
 
# A B C D E F G H I J K L M N O P Q R S T U V W X Y Z