Song name
# A B C D E F G H I J K L M N O P Q R S T U V W X Y Z

Little Yellow Box - Dick Tracey tab

-----------------------------------------------------------------------------
			  Dick Tracey - Little Yellow Box
-----------------------------------------------------------------------------

Tuning: Standard

e|--------------------------------------------------------------------------|
B|--------------------------------------------------------------------------|
G|----------------------------------5-5-5-5-5-5-5-5-5-5-5-5-----------------|
D|----------------------------10p9--5-5-5-5-5-5-5-5-5-5-5-5-----------------|
A|---------7p0-7h10-0h10h12p0-----------------------------------------------|
E|-0h7h8p0--------------------------5-5-5-5-5-5-5-5-5-5-5-5-----------------|

e|--------------------------------------------------------------------------|
B|--------------------------------------------------------------------------|
G|--------------------------------------------------------------------------|
D|---------9----------------------------------------------------------------|
A|-------7-----------7p0-7h10-----------------------------------------------|
E|-0h7h8-----0h7h8p0--------------------------------------------------------|

After the drums come in, the second guitar plays this over the chord part
e|--------------------------------------------------------------------------|
B|--------------------------------------------------------------------------|
G|-9-9-9--9-9-9--12-12-12--12-12-12-----------------------------------------|
D|--------------------------------------------------------------------------|
A|-7-7-7--7-7-7--10-10-10--10-10-10-----------------------------------------|
E|--------------------------------------------------------------------------|

http://www.myspace.com/littleyellowbox
Tap to rate this tab
# A B C D E F G H I J K L M N O P Q R S T U V W X Y Z