Song name
# A B C D E F G H I J K L M N O P Q R S T U V W X Y Z

Live Wires 45 - Killer Paramedics tab

-------------------------------------------------------------------------------
			     Killer Paramedics-Livewires 45
-------------------------------------------------------------------------------
Tabbed by: Bryce Masterman
Email:charger_kid14@yahoo.com

Tuning:Standard Tuning. eBGDAE. 


If you want to listen to the song then there is
the song that was first made with these chords but
was scrapped, but the band just hasn't recorded this
one yet, but it is exactly the same timeing ect. Go 
to their myspace page. myspace.com/livewires45.
will accept most adds aswel. 


INTRO.
e||------------------------------------||
B||------------------------------------||
G||------------------------------------||
D||------------------------------------||
A||-7-7-7-7-7-7-7-7X--3-3-3-3-3-3-3-3--||X
E||-5-5-5-5-5-5-5-5X--1-1-1-1-1-1-1-1--||X
    * * * * * * * *   * * * * * * * *


e||------------------------------------||
B||------------------------------------||
G||------------------------------------||
D||-5-5-5-5-5-5-5-5X-------------------||
A||-3-3-3-3-3-3-3-3X---5-5-5-5-5-5-5-5-||X
E||--------------------3-3-3-3-3-3-3-3-||X
    * * * * * * * *    * * * * * * * *


Verse.
E||------------------------------||
B||------------------------------||
G||---------------5--------------||
D||-7------3------5-X8---5-------||
A||-7-X8---3-X8---3------5-X8----||
E||-5------1-------------3-------||

Chorus. You play this bit at the start of the chorus
and then play exactly what you do during the verse.
E||------------------------------||
B||------------------------------||
G||---------------5--------------||
D||-7------3------5-X8--5--------||
A||-7-X2---3-X2---3-----5-X2-----||
E||-5------1------------3--------||


So you play:
Intro X2
Verse X6
Chorus 
Verse X4
Then there is the bridge which is 
just bass.
Verse X5 or somthing.

| /  slide up
| \  slide down
| h  hammer-on
| p  pull-off
| ~  vibrato
| +  harmonic
| x  Mute note


Tap to rate this tab
# A B C D E F G H I J K L M N O P Q R S T U V W X Y Z