Song name
# A B C D E F G H I J K L M N O P Q R S T U V W X Y Z

Live - Graze tab

#


From ada108@psu.edu Wed Apr  9 12:44:40 1997
Date: Sun, 30 Mar 1997 14:39:53 -0500
From: Andy Adelewitz 
To: guitar@olga.net
Subject: CRD: Graze by Live

"Graze" by +Live+
from the album Secret Samadhi
transcribed by Andy Adelewitz (ada108@psu.edu)

Tune down 1/2 step

Chords used:

    F#m  E5   A5   F5    D5   G5   Bm
Eb|-2----0-------------------------2---
Bb|-2----0-------------------------3---
Gb|-2----x---------10----7---------4---
Db|-4----2----7----10----7----5----4---
Ab|-4----2----7----8-----5----5----2---
Eb|-2----0----5---------------3--------



Verse:

F#m  E5

lick as drums come in:

Ab|---0h2-0-------
Eb|-----------2---

Heavy part:

A5   F5 (8th fret)    D5
			In the early mornin' cut her down...

   A5             G5    F#m
We came to the earth to graze

A5         G5      F#m
Everyone's digging in

A5             G5      D
Now there's no time to live

Bm
Live


Lick throughout second verse:

Eb|--0-1----2~--


The world must be ending, because Chad actually does guitar 
solos on this album. Transcribing solos is not my forte; just 
go off in F#m pentatonic and you'll be fine.
Tap to rate this tab
# A B C D E F G H I J K L M N O P Q R S T U V W X Y Z