Song name
# A B C D E F G H I J K L M N O P Q R S T U V W X Y Z

Live - Pain Lies On The Riverside tab

-------------------------------------------------------------------------------
			     Pain Lies on the Riverside - Live
-------------------------------------------------------------------------------


Tabbed by: Dan
Email: Dan_Western_1991@hotmail.com


Tuning: half step down
Capo: None


eb|------------------------------|------------------------------|
Bb|------------------------------|------------------------------|
Gb|------------------------------|----5h7------7h9p7---5---7----| Intro
Db|----5h7------7h8p7---5---7----|------------------------------|   x2
Ab|------------------------------|------------------------------|
Eb|------------------------------|------------------------------|

   VERSE

eb|---5--5-5--5-5-5--5--|---5--5-5--5-5-5--5---|
Bb|---5--5-5--5-5-5--5--|---5--5-5--5-5-5--5---|
Gb|---5--5-5--5-5-5--5--|---5--5-5--5-5-5--5---|
Db|---7--7-7--7-7-7--7--|---7--7-7--7-7-7--7---|
Ab|---7--7-7--7-7-7--7--|---7--7-7--7-7-7--7---|
Eb|---5--5-5--5-5-5--5--|---5--5-5--5-5-5--5---|


eb|---5--5-5--5-5-5--5--55---5-5-5--5--5-5--5---|
Bb|---6--6-6--6-6-6--6--55---5-5-5--6--6-6--6---|    Verse
Gb|---7--7-7--7-7-7--7--77---7-7-7--7--7-7--7---|      x4
Db|---7--7-7--7-7-7--7--77---7-7-7--7--7-7--7---|
Ab|---5--5-5--5-5-5--5--55---5-5-5--5--5-5--5---|
Eb|---------------------------------------------|

   BRIDGE I

eb|---------------|----------------|--12--12--12--12-12-12-|
Bb|---10-----10---|---12------12---|--13--13--13--13-13-13-|
Gb|---10-----10---|---12------12---|--14--14--14--14-14-14-|
Db|---10---10-----|---12----12-----|--14--14--14--14-14-14-|
Ab|----8--8-------|---10--10-------|--12--12--12--12-12-12-|
Eb|---------------|----------------|-----------------------|

eb|--12--12--12--12-12-12-|
Bb|--13--13--13--13-13-13-|
Gb|--14--14--14--14-14-14-|
Db|--14--14--14--14-14-14-|
Ab|--12--12--12--12-12-12-|
Eb|-----------------------|

eb|---------------|----------------|-----------------------------------|
Bb|---10-----10---|---12------12---|--9-9-9-9-9-9-9-9-9-9-9-9-9-9-9-9--|
Gb|---10-----10---|---12------12---|--9-9-9-9-9-9-9-9-9-9-9-9-9-9-9-9--|
Db|---10---10-----|---12----12-----|--9-9-9-9-9-9-9-9-9-9-9-9-9-9-9-9--|
Ab|----8--8-------|---10--10-------|--7-7-7-7-7-7-7-7-7-7-7-7-7-7-7-7--|
Eb|---------------|----------------|-----------------------------------|


   CHORUS


eb|---5--5-5--5-5-5--5--|---5--5-5--5-5-5--5---|
Bb|---5--5-5--5-5-5--5--|---5--5-5--5-5-5--5---|
Gb|---5--5-5--5-5-5--5--|---5--5-5--5-5-5--5---|
Db|---7--7-7--7-7-7--7--|---7--7-7--7-7-7--7---|
Ab|---7--7-7--7-7-7--7--|---7--7-7--7-7-7--7---|
Eb|---5--5-5--5-5-5--5--|---5--5-5--5-5-5--5---|


eb|---5--5-5--5-5-5--5--55---5-5-5--5--5-5--5---|
Bb|---6--6-6--6-6-6--6--55---5-5-5--6--6-6--6---|    Chorus
Gb|---7--7-7--7-7-7--7--77---7-7-7--7--7-7--7---|      x3
Db|---7--7-7--7-7-7--7--77---7-7-7--7--7-7--7---|
Ab|---5--5-5--5-5-5--5--55---5-5-5--5--5-5--5---|
Eb|---------------------------------------------|


   BRIDGE II


eb|----------------------------------|
Bb|---9--9--9--9---10--10---12--12---|
Gb|---9--9--9--9---10--10---12--12---|    Bridge
Db|---9--9--9--9---10--10---12--12---|      x3
Ab|---7--7--7--7----8---8---10--10---|
Eb|----------------------------------|


  //-------Break------//

   VERSE

eb|---5--5-5--5-5-5--5--|---5--5-5--5-5-5--5---|
Bb|---5--5-5--5-5-5--5--|---5--5-5--5-5-5--5---|
Gb|---5--5-5--5-5-5--5--|---5--5-5--5-5-5--5---|
Db|---7--7-7--7-7-7--7--|---7--7-7--7-7-7--7---|
Ab|---7--7-7--7-7-7--7--|---7--7-7--7-7-7--7---|
Eb|---5--5-5--5-5-5--5--|---5--5-5--5-5-5--5---|

          Dm              Dmsus       Dm

eb|---5--5-5--5-5-5--5--55---5-5-5--5--5-5--5---|
Bb|---6--6-6--6-6-6--6--55---5-5-5--6--6-6--6---|    Verse
Gb|---7--7-7--7-7-7--7--77---7-7-7--7--7-7--7---|      x4
Db|---7--7-7--7-7-7--7--77---7-7-7--7--7-7--7---|
Ab|---5--5-5--5-5-5--5--55---5-5-5--5--5-5--5---|
Eb|---------------------------------------------|


   BRIDGE I


eb|---------------|----------------|--12--12--12--12-12-12-|
Bb|---10-----10---|---12------12---|--13--13--13--13-13-13-|
Gb|---10-----10---|---12------12---|--14--14--14--14-14-14-|
Db|---10---10-----|---12----12-----|--14--14--14--14-14-14-|
Ab|----8--8-------|---10--10-------|--12--12--12--12-12-12-|
Eb|---------------|----------------|-----------------------|

eb|--12--12--12--12-12-12-|
Bb|--13--13--13--13-13-13-|
Gb|--14--14--14--14-14-14-|
Db|--14--14--14--14-14-14-|
Ab|--12--12--12--12-12-12-|
Eb|-----------------------|

eb|---------------|----------------|-----------------------------------|
Bb|---10-----10---|---12------12---|--9-9-9-9-9-9-9-9-9-9-9-9-9-9-9-9--|
Gb|---10-----10---|---12------12---|--9-9-9-9-9-9-9-9-9-9-9-9-9-9-9-9--|
Db|---10---10-----|---12----12-----|--9-9-9-9-9-9-9-9-9-9-9-9-9-9-9-9--|
Ab|----8--8-------|---10--10-------|--7-7-7-7-7-7-7-7-7-7-7-7-7-7-7-7--|
Eb|---------------|----------------|-----------------------------------|


   CHORUS

eb|---5--5-5--5-5-5--5--|---5--5-5--5-5-5--5---|
Bb|---5--5-5--5-5-5--5--|---5--5-5--5-5-5--5---|
Gb|---5--5-5--5-5-5--5--|---5--5-5--5-5-5--5---|
Db|---7--7-7--7-7-7--7--|---7--7-7--7-7-7--7---|
Ab|---7--7-7--7-7-7--7--|---7--7-7--7-7-7--7---|
Eb|---5--5-5--5-5-5--5--|---5--5-5--5-5-5--5---|


eb|---5--5-5--5-5-5--5--55---5-5-5--5--5-5--5---|
Bb|---6--6-6--6-6-6--6--55---5-5-5--6--6-6--6---|    Chorus
Gb|---7--7-7--7-7-7--7--77---7-7-7--7--7-7--7---|      x3
Db|---7--7-7--7-7-7--7--77---7-7-7--7--7-7--7---|
Ab|---5--5-5--5-5-5--5--55---5-5-5--5--5-5--5---|
Eb|---------------------------------------------|


   BRIDGE II


eb|----------------------------------|
Bb|---9--9--9--9---10--10---12--12---|
Gb|---9--9--9--9---10--10---12--12---|    Bridge
Db|---9--9--9--9---10--10---12--12---|      x3
Ab|---7--7--7--7----8---8---10--10---|
Eb|----------------------------------|

eb|------------------------------|------------------------------|
Bb|------------------------------|------------------------------|
Gb|------------------------------|----5h7------7h9p7---5---7----|   x2
Db|----5h7------7h8p7---5---7----|------------------------------|
Ab|------------------------------|------------------------------|
Eb|------------------------------|------------------------------|


BRIDGE I


eb|---------------|----------------|--12--12--12--12-12-12-|
Bb|---10-----10---|---12------12---|--13--13--13--13-13-13-|
Gb|---10-----10---|---12------12---|--14--14--14--14-14-14-|
Db|---10---10-----|---12----12-----|--14--14--14--14-14-14-|
Ab|----8--8-------|---10--10-------|--12--12--12--12-12-12-|
Eb|---------------|----------------|-----------------------|

eb|--12--12--12--12-12-12-|
Bb|--13--13--13--13-13-13-|
Gb|--14--14--14--14-14-14-|
Db|--14--14--14--14-14-14-|
Ab|--12--12--12--12-12-12-|
Eb|-----------------------|

eb|---------------|----------------|-----------------------------------|
Bb|---10-----10---|---12------12---|--9-9-9-9-9-9-9-9-9-9-9-9-9-9-9-9--|
Gb|---10-----10---|---12------12---|--9-9-9-9-9-9-9-9-9-9-9-9-9-9-9-9--|
Db|---10---10-----|---12----12-----|--9-9-9-9-9-9-9-9-9-9-9-9-9-9-9-9--|
Ab|----8--8-------|---10--10-------|--7-7-7-7-7-7-7-7-7-7-7-7-7-7-7-7--|
Eb|---------------|----------------|-----------------------------------|


   CHORUS

eb|---5--5-5--5-5-5--5--|---5--5-5--5-5-5--5---|
Bb|---5--5-5--5-5-5--5--|---5--5-5--5-5-5--5---|
Gb|---5--5-5--5-5-5--5--|---5--5-5--5-5-5--5---|
Db|---7--7-7--7-7-7--7--|---7--7-7--7-7-7--7---|
Ab|---7--7-7--7-7-7--7--|---7--7-7--7-7-7--7---|
Eb|---5--5-5--5-5-5--5--|---5--5-5--5-5-5--5---|


eb|---5--5-5--5-5-5--5--55---5-5-5--5--5-5--5---|
Bb|---6--6-6--6-6-6--6--55---5-5-5--6--6-6--6---|    Chorus
Gb|---7--7-7--7-7-7--7--77---7-7-7--7--7-7--7---|      x3
Db|---7--7-7--7-7-7--7--77---7-7-7--7--7-7--7---|
Ab|---5--5-5--5-5-5--5--55---5-5-5--5--5-5--5---|
Eb|---------------------------------------------|


   BRIDGE II


eb|----------------------------------|
Bb|---9--9--9--9---10--10---12--12---|
Gb|---9--9--9--9---10--10---12--12---|    Bridge
Db|---9--9--9--9---10--10---12--12---|      x3
Ab|---7--7--7--7----8---8---10--10---|
Eb|----------------------------------|


   CODA


eb|------------------------------|------------------------------|
Bb|------------------------------|------------------------------|
Gb|------------------------------|----5h7------7h9p7---5---7----|  Coda
Db|----5h7------7h8p7---5---7----|------------------------------|   x6
Ab|------------------------------|------------------------------|
Eb|------------------------------|------------------------------|

Thats the whole song Enjoy

| /  slide up
| \  slide down
| h  hammer-on
| p  pull-off
| ~  vibrato
| +  harmonic
| x  Mute note

===============================================================================
Tap to rate this tab
# A B C D E F G H I J K L M N O P Q R S T U V W X Y Z