Song name
# A B C D E F G H I J K L M N O P Q R S T U V W X Y Z

Live - When Dolphins Cry tab

t. See http://www.olga.net/faq/ for more information.                     #
#-----------------------------------------------------------------------------#

From: nirvana7@attglobal.net
Date: Thu, 24 Feb 2000 16:46:28 -0500
Subject: l/live/when_dolphins_cry.tab

Live
"When Dolphins Cry"

tuned down 1/2 step

Verse (clean)

  c# A              F#  
|--------         |------------
|--------	  |------------
|-6------ 3X then |------------
|-6--7---	  |-4----------
|-4--7---	  |-4----------
|----5---         |-2----------


Chorus (overdrive)

|--------------------------------------
|--------------------------------------
|-6-4----------------------------------
|-6-4-4--------------------------------
|-4-2-4--------------------------------
|-----2--------------------------------


Bridge

|--------------------------------------
|--------------------------------------
|---4-2--------------------------------
|-2-4-2-4-------4----------------------
|-2-2-0-4-------4----------------------
|-0-----2-0-0-0-2----------------------

All work done by Matt Pettineo
Tap to rate this tab
# A B C D E F G H I J K L M N O P Q R S T U V W X Y Z