Song name
# A B C D E F G H I J K L M N O P Q R S T U V W X Y Z

Live - White Discussion tab

-------------------------------------------------------------------------------
			     Live - White Discussion
-------------------------------------------------------------------------------
Tabbed by: Eric
Email: eric6818@comcast.net

Tuning: Standard

First chord is an E Chord, strum from highest to lowest string.  Continue these four 
throughout the verse:

e|-0--x--0---x----0---x----0------------------------------------------------|
B|-0--x--0---x----0---x----0------------------------------------------------|
G|-1--x--7---x----4---x----4------------------------------------------------|
D|-2--x--x---x----6---x----5------------------------------------------------|
A|-2--x--5---x----4---x-----------------------------------------------------|
E|-0--x------x--------x-----------------------------------------------------|

Chorus:
"But this will be what we said"
e|--------------------------------------8-------------0---------------------|
B|--------------------------------------8-------------0---------------------|
G|-7/9-9-9-9-9---7/9-9-9-9-9---7/9-9-9--9-------------0---------------------|
D|-7/9-9-9-9-9---7/9-9-9-9-9---7/9-9-9--10------------10---10/12------------|
A|-5/7-7-7-7-7---5/7-7-7-7-7---5/7-7-7--10------------10---10/12------------|
E|--------------------------------------8--let ring---8----8/-10------------|

**I'm too drunk to bother tabbing out the solo.  It's basically a phase and/or wah 
with a hammer on from the 7th to the 9th to 12th fret on the B and G strings.  Maybe I'll tab 
out tomorrow
|


| /  slide up
| \  slide down
| h  hammer-on
| p  pull-off
| ~  vibrato
| +  harmonic
| x  Mute note
===============================================================================
Tap to rate this tab
# A B C D E F G H I J K L M N O P Q R S T U V W X Y Z