Song name
# A B C D E F G H I J K L M N O P Q R S T U V W X Y Z

Live - Lightning Crashes tab

#----------------------------------PLEASE NOTE--------------------------------#
#This file is the author's own work and represents their interpretation of the#
#song. You may only use this file for private study, scholarship, or research.#
#-----------------------------------------------------------------------------#
#-- File created with Instab - http://www.pconline.com/~smcarey/instab.html --#
#-----------------------------------------------------------------------------#

Author/Artist: Live
Title: Lightning Crashes

H hammer on
P pull off
X scratch note
/ slide up


------|-0----0----0----|--|---------------------------------------------------|
------|-0----0----7----|--|---------------------------------------------------|
------|-x----x----x----|--|---------------------------------------------------|
------|-6----9----8----|--|---------------------------------------------------|
------|-7----9----9----|--|---------------------------------------------------|
------|-x----x----x----|--|---------------------------------------------------|
      Intro/Verse/Chorus/Outro Strum Chords

------|------------------4h6p4--------|--|--x----x---|------------------------|
------|------------------------2------|--|--0----2---|------------------------|
------|----1/3--1----------------3-3--|--|--1----3---|------------------------|
------|-6----------4--4------------4--|--|--2----4---|------------------------|
------|-6-------------4---------------|--|--2----4---|------------------------|
------|-x-------------x---------------|--|--x----x---|------------------------|
       Bridge                              Strum Chords
Tap to rate this tab
 
# A B C D E F G H I J K L M N O P Q R S T U V W X Y Z