Song name
# A B C D E F G H I J K L M N O P Q R S T U V W X Y Z

Live - Deep Enough tab

e|----14b15b14--12--14---12h14p12-----12--14--15-------------------|
B|---------------------------------15------------14----------------|
G|-----------------------------------------------------------------|
D|-----------------------------------------------------------------|
A|-----------------------------------------------------------------|
E|-----------------------------------------------------------------|

e|----14b15b14--12--14---12h14p12----------------------------------|
B|---------------------------------15---12--14-----10--------------|
G|-----------------------------------------------------------------|
D|-----------------------------------------------------------------|
A|-----------------------------------------------------------------|
E|-----------------------------------------------------------------|
Tap to rate this tab
# A B C D E F G H I J K L M N O P Q R S T U V W X Y Z