Guitaretab - guitar tabs
Song name
# A B C D E F G H I J K L M N O P Q R S T U V W X Y Z

Live - Sweet Release tab

---------------------------------------------------------------------
			     SWEET RELEASE - +Live+
---------------------------------------------------------------------
Tabbed by: asprology21
Email: benremmert@hotmail.com

Tuning: Eb, Ab, Db, Gb, Bb, eb

INTRO/VERSE
    
    Em    C          Em     G
eb|----------------------------3----------|
Bb|-------------1----------------3--------|
Gb|-----0---------0------0----------------|
Db|---------0h2---------------------------|
Ab|-2----3-------------2----2-------------|
Eb|-0----------------0------3-------------|
        I hope…         she lights that..

[ Tab from: http://www.guitaretab.com/l/live/65124.html ]
    Em    C          Em     G              D
eb|----------------------------3-----------2----|    
Bb|-------------1----------------3---------3----|
Gb|-----0---------0------0-----------------2----| x2 then
Db|---------0h2----------------------------0----|
Ab|---2---3------------2------------------------|
Eb|-0----------------0------3-------------------|
        I Hope..         She shows me everything

 LEAD IN 

    D
eb|-2-2-2-2--2-0-2-3-2-0-2----------------|
Bb|-3-3-3-3--3-3-3-3-3-3-3----------------|
Gb|-2-2-2-2--2-2-2-2-2-2-2----------------|
Db|-0-0-0-0--0-0-0-0-0-0-0----------------|
Ab|---------------------------------------|
Eb|---------------------------------------|
                    
 CHORUS

   C            A            G            D    
e|-------------------------------------------------------|
B|-------5-5-5----------------------------7-x-x-7-8-7----|
G|-5-x-x-5-5-5--6-x-x-6-6-6--4-x-x-4-4-4--7-x-x-7-7-7----|
D|-5-x-x-5-5-5--7-x-x-7-7-7--5-x-x-5-5-5--7-x-x-7-7-7----|
A|-3-x-x-3-3-3--7-x-x-7-7-7--5-x-x-5-5-5--5-x-x-5-5-5----|
E|--------------5-x-x-5-5-5--3-x-x-3-3-3-----------------|

All the best…………



| /  slide up
| \  slide down
| h  hammer-on
| p  pull-off
| ~  vibrato
| +  harmonic
| x  Mute note
=========================================================================

Related for Sweet Release tab