Guitaretab - guitar tabs
Song name
# A B C D E F G H I J K L M N O P Q R S T U V W X Y Z

Live - What Are We Fighting For tab

--------------------------------------------------------------
WHAT ARE WE FIGHTING FOR - +LIVE+
--------------------------------------------------------------
Tabbed by: Asprology21
Email: benremmert@hotmail.com

Tuning:

  VERSE
e|------0-0------2-2-0-2-3-2-0-2-----------------|
B|----0-0-0-0-0--3-3-3-3-3-3-3-3-----------------|
G|----0-0-0-0-0--2-2-2-2-2-2-2-2-----------------|A Few
D|--2-2-2-2-2-2--0-0-0-0-0-0-0-0-----------------|Times then:
A|--2-2-2-2-2-2----------------------------------|
E|--0-0-0-0-0-0----------------------------------|
[ Tab from: http://www.guitaretab.com/l/live/65158.html ]
  LEAD IN
e|-----------------------------------------------|
B|--------------5--5--5--5-----------------------|
G|--5--5--5--5--5--5--5--5-----------------------|
D|--5--5--5--5--7--7--7--7-----------------------|
A|--3--3--3--3--7--7--7--7-----------------------|
E|-----------5--5--5--5--5-----------------------|
   
  RIFF
e|-----------------------------------------------|
B|-----------------------------------------------|
G|-----------------------------------------------|
D|-10-9-10-9-7-9-\-5-----------------------------|
A|--x-x--x-x-x-x---x-----------------------------|
E|--8-7--8-7-5-7-\-3-----------------------------|

  CHORUS
e|------------------------------------------|
B|------------------------------------------|
G|------5-5-x--------x-x-x-x-x--------------|
D|-2-2--5-5-x-5-5-5--x-x-x-x-x--------------|
A|-2-2--3-3---5-5-5--x-x-x-x-x--------------|
E|-0-0--------3-3-3-------------------------|

  BRIDGE
e|---0-0-0----0-0-0----3-3-3-3-3-----------------|
B|---1-1-1----1-1-1----3-3-3-3-3-----------------|
G|-2-2-2-2--0-0-0-0--0-0-0-0-0-0-----------------|
D|-2-2-2-2--2-2-2-2--0-0-0-0-0-0-----------------|
A|-0-0-0-0--3-3-3-3--2-2-2-2-2-2-----------------|
E|-------------------3-3-3-3-3-3-----------------|

Enjoy. Any comments welcome.

| /  slide up
| \  slide down
| h  hammer-on
| p  pull-off
| ~  vibrato
| +  harmonic
| x  Mute note
Related for What Are We Fighting For tab