Song name
# A B C D E F G H I J K L M N O P Q R S T U V W X Y Z

Lively Ones - Surfers Lament tab

well, there are no tabs to this on the internet so i figured out a little myself.
the chords are just above the tab



          "Surfers Lament" by The Lively Ones

(lead pickup)
          C                     Em                   Am
|--------|------------------------------|-------------------|
|--------|------------------------------|-------------------|
|--------|------------------------------|-------------------|
|--------|------------------------------|-------------------|
|--0-1-2-|-3~~~~~~-3--5--7--7/--2~~~~~~-|-2--3--5--5/-0~~~~-|
|--------|------------------------------|-------------------|

            D                   C
|------------------------------------------|-----------------------------|
|------------------------------------------|-----------------------------|
|------------------------------------------|-----------------------------|
|------------------------------------------|-----------------------------|
|--0--2--3--5~~~~~-7~~~~-7-5-7--3~~~~~~~---|-3-2b-3-3~~~~~-3-2b-3-3~~~~~-|
|------------------------------------------|-----------------------------|

         G
|---------------|
|---------------|
|--------0~~~~~-|
|--------0~~~~~-|
|--------2~~~~~-|
|--0-1-2-3~~~~~-|

thats the intro part!

i'll have more of this up soon! the higher part is just 2 octaves up played on the high e string!
i hope this gets you playing this song soon enough!

-Bert
Tap to rate this tab
 
# A B C D E F G H I J K L M N O P Q R S T U V W X Y Z