Song name
# A B C D E F G H I J K L M N O P Q R S T U V W X Y Z

Liveonrelease - All Night Long tab

Song: All Night Long
Artist: LiveonRelease
Album: Seeing Red
As tabbed by Joe Muggah	

Bass Verse
G---------------------------------------------------------
D---------------------------------------------------------
A---------------------------------------------5-5-5-5-5-5-
E-0-0-0-0-3--3--0-0-0-0-3--3--0-0-0-0-3--3--0-------------
("I can give you love...")

Bass Chorus
G---------------------------------------------------------
D---------------------------------------------------------
A---------------------------------------------------------
E-5-5-5-5-5-5-5-5-3-3-3-3-3-3-3-3-0--0-0-0--0-0-3-3--3-3-3
("Baby...all night long...")

(continued)                                   end on 
G-------------------------------------------|-------------
D-------------------------------------------|-------------
A-------------------------------------------|-------------
E-5-5-5-5-5-5-5-5-3-3-3-3-3-3-3-3-0--0-0-0--|-0-----------

Verse 
e-----|---------------------------------------------------
B-----|---------------------------------------------------
G-----|-------------------------------------7-7-7-7-7-7---
D-----|-2-2-2------2-2-2------2-2-2------2--7-7-7-7-7-7---
A-----|-2-2-2-2--2-2-2-2-2--2-2-2-2-2--2-2--5-5-5-5-5-5---
E-12\-|-0-0-0-3--3-0-0-0-3--3-0-0-0-3--3-0----------------

Chorus
e---------------------------------------------------------
B---------------------------------------------------------
G---------------------------------------------------------
D-7-7-7-7-7-7-7-7-5-5-5-5-5-5-5-5-2--2-2-2--2-2-5-5--5-5-5
A-7-7-7-7-7-7-7-7-5-5-5-5-5-5-5-5-2--2-2-2--2-2-5-5--5-5-5
E-5-5-5-5-5-5-5-5-3-3-3-3-3-3-3-3-0--0-0-0--0-0-3-3--3-3-3

(continued)                                   end on
e-------------------------------------------|-------------
B-------------------------------------------|-------------
G-------------------------------------------|-------------
D-7-7-7-7-7-7-7-7-5-5-5-5-5-5-5-5-2--2-2-2--|-2-----------
A-7-7-7-7-7-7-7-7-5-5-5-5-5-5-5-5-2--2-2-2--|-2-----------
E-5-5-5-5-5-5-5-5-3-3-3-3-3-3-3-3-0--0-0-0--|-0-----------

Bass Verse
Bass Chorus
Verse
Chorus
Verse
Chorus
Verse
Chorus
Verse
Tap to rate this tab
# A B C D E F G H I J K L M N O P Q R S T U V W X Y Z