Song name
# A B C D E F G H I J K L M N O P Q R S T U V W X Y Z

Liveonrelease - Get With It tab

This is a nice song from liveonrelease and very easy to play. I didn't write the rythm. You'll be able to figure it out.

Standard tuning

Intro/verse/interlude

E-----------------------------------------------------------
B-----------------------------------------------------------G--7-----9--------------------------------------------------
D--7--7--9--4-----------------------------------------------
A--5--7--7--4-----------------------------------------------
E-----5-----2-----------------------------------------------

Chorus

"Get with it...."

E-----------------------------------------------------------B-----------------------------------------------------------
G--7-----------7-----9--------------------------------------
D--7--7--4--7--7--7--9--4-----------------------------------
A--5--7--4--7--5--7--7--4-----------------------------------
E-----5--2--5-----5-----2-----------------------------------




That's the song! Have fun! If you have any comments, suggestions, e-mail me
 
at halflife_menard@hotmail.com
Tap to rate this tab
# A B C D E F G H I J K L M N O P Q R S T U V W X Y Z