Guitaretab - guitar tabs
Song name
# A B C D E F G H I J K L M N O P Q R S T U V W X Y Z

Liveonrelease - Johnny Johnny tab

Song: Johnny Johnny
Artist: LiveonRelease
Album: Seeing Red
As tabbed by Joe Muggah	

Guitar 1 is acoustic
Guitar 2 is electric with mild distortion

Intro A (Guitar 1)
e-2-2-2-2-2--5-5-5-5--7-7----2-2-2-2-2--5-5--7-7-7--------
B-4-4-4-4-4--7-7-7-7--9-9----4-4-4-4-4--7-7--9-9-9--------
G-4-4-4-4-4--7-7-7-7--9-9----4-4-4-4-4--7-7--9-9-9--------
D-4-4-4-4-4--7-7-7-7--9-9----4-4-4-4-4--7-7--9-9-9--------
A-2-2-2-2-2--5-5-5-5--7-7----2-2-2-2-2--5-5--7-7-7--------
E---------------------------------------------------------

Intro B (Guitar 2)
e------------10-9-10-9-7-5--------------------------------
B--------------------------5------------------------------
G-4-4-4-4-4------------------4-4-4-4-4--2-2---------------
D-4-4-4-4-4------------------4-4-4-4-4--2-2--2-2-2--------
A-2-2-2-2-2------------------2-2-2-2-2--0-0--2-2-2--------
E--------------------------------------------0-0-0--------

Verse A (Guitar 1)
e-2-2-2-2-2--2-2-2--3-3-3---8-------10---10---10----------
B-4-4-4-4-4--2-2-2--3-3-3---8-------10---10---10----------
G-4-4-4-4-4--3-3-3--4-4-4---9-------11---11---11----------
D-4-4-4-4-4--4-4-4--5-5-5--10-(x8)--12---12---12----------
A-2-2-2-2-2--4-4-4--5-5-5--10-------12---12---12----------
E------------2-2-2--3-3-3---8-------10---10---10----------
("Johnny Johnny who can you...")
[ Tab from: http://www.guitaretab.com/l/liveonrelease/40636.html ]
Verse B (Guitar 2)
e---------------------------------------------------------
B---------------------------------------------------------
G-4-4-4-4-4----------------5-5-5-5-5-5-5-5---7---7---7----
D-4-4-4-4-4--4-4-4--5-5-5--5-5-5-5-5-5-5-5---7---7---7----
A-2-2-2-2-2--4-4-4--5-5-5--3-3-3-3-3-3-3-3---5---5---5----
E------------2-2-2--3-3-3---------------------------------

Chorus A (Guitar 1)
e-0------7------5------10------0------7------10-------5-5-
B-0------7------5------10------0------7------10-------5-5-
G-0-(x6)-8-(x6)-6-(x6)-11-(x6)-0-(x6)-8-(x6)-11-(x10)-6-6-
D-2------9------7------12------2------9------12-------7-7-
A-2------9------7------12------2------9------12-------7-7-
E-0------7------5------10------0------7------10-------5-5-
("Space station...over stimulation...")

Chorus B (Guitar 2)
e---------------------------------------------------------
B---------------------------------------------------------
G--------4------2------7--------------4------7-------2-2--
D-2-(x6)-4-(x6)-2-(x6)-7-(x6)--2-(x6)-4-(x6)-7-(x10)-2-2--
A-2------2------0------5-------2------2------5-------0-0--
E-0----------------------------0--------------------------

Bridge (Bass)
e--0--|
B--0--|
G--0--|---------------------------------------------------
D--2--|----------0--------------0--------0----------------
A--2--|----2--0-----------2--0--------2--------0--2-------
E--0--|-0-----------0--0-----------0----------------------

Intro A, B
Verse A, B
Chorus A, B
Intro A, B
Verse A, B
Chorus A, B
Intro A, B
Bridge
Intro A, B
Related for Johnny Johnny tab
Johnny Johnny chords by Liveonrelease