Guitaretab - guitar tabs
Song name
# A B C D E F G H I J K L M N O P Q R S T U V W X Y Z

Living Colour - Cult Of Personality tab

-----------------------------------------------------------------
Cult of Personality - Living Colour
-----------------------------------------------------------------
Tabbed by:XrejectX
Email:

Tuning:standard i believe

e|---------------------------------------------------------------|
B|---------------------------------------------------------------|
G|---------------------------------------------------------------|
D|---3p0-----2-----3p0-----2-----3p0-----2-----3p0-----2-2-------|
A|---------------------------------------------------------------|
E|-3------3-----3-------3-----3------3-----3-------3-------------|

play that ^(above) a few times till 0:23 then play this...

e|---------------------------------------------------------------|
B|---------------------------------------------------------------|
G|------------------2----------------------------3---------------|
D|----3p0-----5-3------3--0----------------------3---------3-----|
A|----------------5---------3-2------------------1---------3-----|
E|-3-------3-----------------------------------------------1-----|

e|---------------------------------------------------------------|
B|---------------------------------------------------------------|
G|----------------3---------------5-----------------------3------|
D|----------------3---------------5-----------------------3------|
A|----------------1---------------3-----------------------1------|
E|---------------------------------------------------------------|

e|---------------------------------------------------------------|
B|---------------------------------------------------------------|
G|----------------------------------------------3--------5-------|
D|-------3--------3p0-----2-----3p0-----2-------3--------5-------|
A|-------3--------------------------------------1--------3-------|
E|-------1-----3------3-----3-------3----------------------------|

e|----------------------------------------------------------------------|
B|----------------------------------------------------------------------|
G|-----------------3---------------------------2-----5-4----------------|
D|---3p0-----5-3-----3-0---------------3p0-------4-0-----5-3-----3p0----|
A|---------------5--------3-2--------------------------------5----------|
E|-3------3-------------------------3-------3------------------3------3-|

                                             Neon  lights...
e|---------------------------------------------------------------------|
B|-------------------------------------------11---10--10------10--13---|
G|-------2----------------2-----5-4----------10---10------10-----------|
D|-5-3-----3-0-------3p0----3-0-----5-3------12---10-------------------|
A|-----5-------3-2----------------------5------------------------------|
E|-----------------3-----3---------------------------------------------|
                                             ^bridge part begins,1:15

e|---------------------------------------------------------------------|
B|--------13--12---------13p12----------10----10-----10----------8-----|
G|----12------12--------------12-----11------9-----9-10------10--9-----|
D|-14---------12-----12---------12-12------11---11---10--10------10----|
A|---------------------------------------------------------------------|
E|---------------------------------------------------------------------|

e|------------------------------------------------------------|
B|--------8---------------10------11b------20---------13--12--|
G|------------9---15------10-----------------------12-----12--|
D|----10----------15------10--------------------14--------12--|
A|----------------13------8-----------------------------------|
E|------------------------------------------------------------|
[ Tab from: http://www.guitaretab.com/l/living-colour/10666.html ]
e|---------------------------------------------|
B|-13--12--12-----------10---------------------|
G|-------12---------11----------9---12~--------|
D|--------------12----------11------------11---|
A|---------------------------------------------|
E|---------------------------------------------|

guitar solo begins at 1:35 (below)

e|-------------15~-----17p15-----15-15-15----------------------------------|
B|-/10--8-------------------17p15----------18b----18p15h18-15h18-15h17-15--|
G|-/10--9------------------------------------------------------------------|
D|-/10--10-----------------------------------------------------------------|
A|-------------------------------------------------------------------------|
E|-------------------------------------------------------------------------|

e|--------------------------------------------------------------18-----18/-|
B|-------------------------15-18-15---------------------18----15-----------|
G|-17-17b--17-15--15--17b----------17b-17-15--15---15~---------------------|
D|--------------17---------------------------------------------------------|
A|-------------------------------------------------------------------------|
E|-------------------------------------------------------------------------|

repeat the above part a few times, not corret how many times, sorry i dont have how many 
continue with the following after repeating a few times

e|----------------------------5------------------------------------------|
B|-10---10--8------------18b---18p15-18p15h17p15--------15h18p15h17p15---|
G|-10---10--9-----------------------------------17p15h17--------------17-|
D|-10---10--10-----------------------------------------------------------|
A|-----------------------------------------------------------------------|
E|-----------------------------------------------------------------------|

e|---------------------------------------------------------------------|
B|-15----18p15-17p15--------15h18p15h17p15------15------15--------15---|
G|---17b------------17p15h17---------------17p15---17b----17p15h17-----|
D|---------------------------------------------------------------------|
A|---------------------------------------------------------------------|
E|---------------------------------------------------------------------|

e|-------------------------------------------------------------------------|
B|-18p15-17p15-15-------------------------17p15----15---------------15p17--|
G|---------------17b---------17-17b---15-------17-----17p15---------0------|
D|----------------------------------------------------------17p15h17-------|
A|----------------------------------15-------------------------------------|
E|-------------------------------------------------------------------------|

e|---------------------------------------|
B|-----------15h17-15---------15h17--15--|
G|--------------------0------------------|
D|-17-15h17-------------15h17------------|
A|---------------------------------------|
E|---------------------------------------|

The following part is played relatively fast, so i recommend practise those scales to 
killer chops...

e|-------------------------------------------------------------------|
B|-----------15h17p15-----17-15--15--------15h18p15h17p15-15--15-----|
G|-17----------------17-15-----17--17-15-17-----------------17--17b--|
D|---17p15h17--------------------------------------------------------|
A|-------------------------------------------------------------------|
E|-------------------------------------------------------------------|

okay, unfortunately thats all i have... hopefully, that should get you started, the 
in the solo is spaced out for legibility, and it played quite fast, thats why it hard for me 
tab it... i will hopefully have the rest of it done soon...


| /  slide up
| \  slide down
| h  hammer-on
| p  pull-off
| ~  vibrato
| +  harmonic
| x  Mute note
Related for Cult Of Personality tab
Cult Of Personality chords by Living Colour