Song name
# A B C D E F G H I J K L M N O P Q R S T U V W X Y Z

Living Colour - Desperate People tab

DESPERATE PEOPLE
by Living Colour

Tuning: (EADGBE)
Transcribed by Soch H.

Riff starts at (0:54)

|----------------------------------------------------|
|----------------------------------------------------|
|-----------9--7--7----------------------------------|
|-----------9--7--7----------------------------------|
|-----5h7---7--5--5----------------------------------|
|-5h7------------------0--3--0--4--0--5--------------|

|------------------------|
|------------------------|
|-----------9--7--7------|
|-----------9--7--7------|
|-----5h7---7--5--5------|
|-5h7--------------------|

Riff 2 starts at (1:12)

|----------------------|
|----------------------|
|-4-----------2--2-----|
|-4---2---5---2--2-----|
|-2---2---5---0--0-----|
|-----0---3------------|
Tap to rate this tab
 
# A B C D E F G H I J K L M N O P Q R S T U V W X Y Z