Song name
# A B C D E F G H I J K L M N O P Q R S T U V W X Y Z

Living Colour - Glamour Boys tab

Living Colour
Glamour Boys
Capo 1st Fret
Transcribed by Soch H.

Main Riff: (not relative to capo)
|-----x-x-----x-x-----x-x-----x-x-5-5-x-x-5-5-x-x-6-6-x-6--6-6---|
|-6-6-x-x-6-6-x-x-8-8-x-x-8-8-x-x-6-6-x-x-6-6-x-x-6-6-x-6--6-6---|
|-7-7-x-x-7-7-x-x-8-8-x-x-8-8-x-x-----x-x-----x-x-----x----------|
|----------------------------------------------------------------|
|----------------------------------------------------------------|
|----------------------------------------------------------------|

|-----x-x-----x-x-----x-x-----x-x-----x-x-----x-x-----x----------|
|-6-6-x-x-6-6-x-x-8-8-x-x-8-8-x-x-6-6-x-x-6-6-x-x-6-6-x-6-6------|
|-7-7-x-x-7-7-x-x-8-8-x-x-8-8-x-x-5-5-x-x-5-5-x-x-5-5-x-5-5------|
|----------------------------------------------------------------|
|----------------------------------------------------------------|
|----------------------------------------------------------------|

Verses:  A  D  E
Choruses:  A  D  E  G

Verse:
The glamour boys swear they are a diva
The glamour boys have it all under control
Always dancing, always laughing
The glamour boys are playing the whole

The glamour boys never have no money
The glamour boys wear the most expensive clothes
The glamour boys are always at the party
Where the money comes from, heaven only knows

Chorus:
I ain't no glamour boy (I'm fierce)
I ain't no glamour boy (Whoa!)
I ain't no glamour boy (I'm fierce)
I ain't no glamour boy 

Verse:
The glamour boys live off their ambition
The glamour boys have it all figured out
A very, very dubious position
When you got no clout

The glamour boys whole life is a gamble
They might get over or fall flat on their face
But if one does, there's no need to worry
Another G boy will take his place

Chorus:
I ain't no glamour boy (I'm fierce)
I ain't no glamour boy (Whoa!)
I ain't no glamour boy (I'm fierce)
I ain't no glamour boy 

Guitar Interlude: (not relative to capo)
|-------3-------------------------------------------|
|-3-4-3---3-4-3-4-3---3-4-3---------1---4-4--4-3-1--|
|---------------------------------2-----------------|
|-------------------------------3-------------------|
|----------------------------3----------------------|
|---------------------------------------------------|

|-------3-------------------------------|
|-3-4-3---3-4-3-4-3---3-4-3-------------|
|----------------------------8--7--10---|
|----------------------------8--7--10---|
|----------------------------6--5--8----|
|---------------------------------------|

|-------3-------------------------------------------|
|-3-4-3---3-4-3-4-3---3-4-3---------1---4-4--4-3-1--|
|---------------------------------2-----------------|
|-------------------------------3-------------------|
|----------------------------3----------------------|
|---------------------------------------------------|

|-------3-------------------------------------------|
|-3-4-3---3-4-3-4-3---3-4-3-------------------------|
|---------------------------13-12-10-8-7-10---------|
|---------------------------13-12-10-8-7-10---------|
|---------------------------11-10-8--6-5-8----------|
|---------------------------------------------------|

Verse:
The glamour boys don't think about tomorrow
The glamour boys just need the night to play
But just like things that can't afford credit
Time catches up, and you have to pay

The glamour boys are always on the guest list
You'll always find them in the hottest spots in town
They'll be your friend if you have fame or fortune
If you don't they won't be hanging around

Chorus:
I ain't no glamour boy (I'm fierce)
I ain't no glamour boy (Whoa!)
I ain't no glamour boy (I'm fierce)
I ain't no glamour boy 
(x2)

Ending: (not relative to capo)
|-------------------------------------------------|
|----------------------6-6-6-6-6--7-7-7-7-7-7-----|
|---13-12-10-8-7-10----6-6-6-6-6--6-6-6-6-6-6-----|
|---13-12-10-8-7-10----6-6-6-6-6--6-6-6-6-6-6-----|
|---11-10-8--6-5-8-----4-4-4-4-4--4-4-4-4-4-4-----|
|-------------------------------------------------|

What do you mean my credit's no good?

|-6\----|
|-6\----|
|-7\----|
|-8\----|
|-------|
|-------|

Chords:
A:   x02220
D:   xx0232
E:   022100
G:   320033
Tap to rate this tab
# A B C D E F G H I J K L M N O P Q R S T U V W X Y Z