Song name
# A B C D E F G H I J K L M N O P Q R S T U V W X Y Z

Living Dead Lights - What Do You Do tab

Tuning: Drop Db  (Db/Ab/Db/Gb/Bb/Eb)

For the strumming listen the song ;)

Intro:

eb|---------------------|
Bb|---------------------|
Gb|-66666666-4444-2222--|
Db|-44444444-2222-0000--|  x2
Ab|-44444444-2222-0000--|
Db|-44444444-2222-0000--|

ends with:

eb|-----------------|
Bb|-----------------|
Gb|-----------7-6---|
Db|-----------7-6---|
Ab|-----------5-4---|
Db|-4/2/4/2/4-------|

VERSE:

eb|----------------------------------|
Bb|----------------------------------|
Gb|-6------64--42--26----------------|  x4    *=PM
Db|-4------42--20--04----------------|
Ab|-4------42--20--04----------------|
Db|-444444442222000044444-repeat...--|
     ******  **  **  ****
"BRIDGE"

eb|-------------------------------------------|
Bb|-------------------------------------------|
Gb|-------------------------------------------|
Db|-44444444-6666-7777-44444444-7777-9999-----|
Ab|-44444444-6666-7777-44444444-7777-9999-----|
Db|-44444444-6666-7777-44444444-7777-9999-----|

CHORUS

eb|------------------------------------|
Bb|------------------------------------|
Gb|-22222222-4444444-6666666-4444444---| x4
Db|-00000000-2222222-4444444-2222222---|
Ab|-00000000-2222222-4444444-2222222---|
Db|-00000000-2222222-4444444-2222222---|

INTRO x2

VERSE x4

CHORUS x4

"BRIDGE"

then...

eb|-------|
Bb|-------|
Gb|-6-----|
Db|-6-----|
Ab|-4-----|
Db|-------|

From "3.04"

CHORUS x4

INTRO x3

END.
Tap to rate this tab
 
# A B C D E F G H I J K L M N O P Q R S T U V W X Y Z